Song name
# A B C D E F G H I J K L M N O P Q R S T U V W X Y Z

Vete A La Versh - Garnachas Acousitc tab

1---------------------------------|
2---------------------------------|
3---------------------------------|
4-2-------------------------------|
5-2-------------------------------|
6---------------------------------|   6x

1----------------------------------|
2----------------------------------|
3----------------------------------|
4---5------------------------------|
5---5------------------------------|
6---3------------------------------|  2x

1--------------------------------------|
2--------------------------------------|
3--------------------------------------|
4----7---------------------------------|
5----7---------------------------------|
6----5---------------------------------|  2x

well, i think thats all, its just the intro, please rate and comment
credit to vete a la versh(you tube)

tag11219
Tap to rate this tab
 
# A B C D E F G H I J K L M N O P Q R S T U V W X Y Z