Song name
# A B C D E F G H I J K L M N O P Q R S T U V W X Y Z

Vetiver - Rolling Sea tab

ok, this is the first tab i have ever done, it's not exact but it's pretty damn close.

the main reason i'm posting this is to hopefully encourage more people, however 
to continue to fill this site with Vetiver tabs.

It is an amazing band enjoyed by a select few, help each other out.

Vetiver~~~Rolling Sea
(listen to the song for timing)


e |--------------------|-----------------|
B |-----3---3--3-------|-----------------|
G |-2h4---4------4p2-2-|-2h4-2-----------|
D |--------------------|-------4-2-0-----|
A |--------------------|-----------------|
E |--------------------|-----------------|

e |--------------------|-----------------|
B |-------3--3---------|-----------------|
G |-2h4p2------4p2-----|-----2---2-------|
D |--------------------|-2h4---4---2h4-2-|
A |--------------------|-----------------|
E |--------------------|-----------------|


e |--------------------|-----------------|
B |-----3---3--3-------|-----------------|
G |-2h4---4------4p2-2-|-2h4-2-----------|
D |--------------------|-------4-2-0-----|
A |--------------------|-----------------|
E |--------------------|-----------------|


e |---------------------------------------|
B |---------------------------------------|
G |--------------------------2------2-----|
D |-2h4-2p0-----0--0-2h4p2h4----2h4---4-2-|
A |---------2p0---------------------------|
E |---------------------------------------|


please, feel free to email me updates/fixes/anything you want about this tab, or Vetiver 
general.

MogManX44@gmail.com
Tap to rate this tab
# A B C D E F G H I J K L M N O P Q R S T U V W X Y Z