Song name
# A B C D E F G H I J K L M N O P Q R S T U V W X Y Z

Vetiver - Without A Song tab

Artist: Vetiver
Song: Without A Song
Album: Vetiver

Standard Tuning

It's mostly strumming so you don't have to follow that note for note, although it is
close to the real song. All of the chords are right, just figure out the timing and you'll
able to play the whole song pretty much!! And the rest of the chorus is in D I believe, 
just strum accordingly, I didn't feel like tabbing all of the little nuisances out

|---2--------2-------2-------2---5--------5-------5-------5--|
|---3----3-------3-------3-------7----7-------7-------7------|
|---2------2-------2-------2-----6------6-------6-------6----|
|-4-4--4-------4-------4---------7--7---------------7--------|
|------------------------------5-5----------5----------------|
|------------------------------------------------------------|


|---3--------3-------3-------3----0----0---------0------------|
|---5----5-------5-------5--------1--3-----1---------3-1------|
|---4------4-------4-------4------2------------2-----------2--|
|-5-5--5-------5-------5--------3-3------3---3-----3-----3----|
|-------------------------------------------------------------|
|-------------------------------------------------------------|


|---2--------2----------------------------------------------|
|---2----2-------2---2--------------0-------------0---------|
|---2------2-------2---2-0---0----0-----2-------0-----2---2-|
|-0-0--0-------0-----------4------2---------2---2-------2---|
|---------------------------------2-------------2-----------|
|-------------------------------0-0---0---0---0-0---0-------|


|-----0---------0-0---------------------------------------|
|---1-----1---1-1-----3-1---------0-------------0---------|
|---0-------2---0-----------0---1-----1-------1-----1---1-|
|---2-----------2---------------2---------2---2-------2---|
|-3-3---3-------3---3-----3-----2-------------2-----------|
|-------------------------------0---0---0---0-0---0-------|


|-7--7--5---------------2----|
|-7--7--5---------------3----|
|-7--7--5-------2---0---2----|
|-5--5--5---2-4---4-----0----|
|----------------------------|
|----------------------------|
Tap to rate this tab
# A B C D E F G H I J K L M N O P Q R S T U V W X Y Z