Song name
# A B C D E F G H I J K L M N O P Q R S T U V W X Y Z

Vetiver - Road To Ronderlin tab

       Em x2               G x2
Oh the night it is so very wild
      G        D               C x2
And I feel the mist is closing in
          G             D
Should we hesitate once more
         G       G/F#    Em x2
Then our natural life is o'er
          C              D               C   /b   /a    G               
And we'll never find the road to Ronderlin

Oh my wife, I am so much a fool
And a victim of a wandering mind
From the path I led astray
With a sunrise far away
And the mist is of the deepest kind

Peter dear, I fear so for my life
For my soul, and for our children three
Do you hear the wild birds call
Can you hear my voice at all
Oh road, sweet road where can you be?


Solo, over main chord progression:
e|---------------------------------------------------------------------------|
B|----11--11--------10--10------8~-------------------------------------------|
G|----12--12--------------------8~---------------------10--------------------|
D|-----------------------------------------12b13b12---------10--10b12~-------|
A|---------------------------------------------------------------------------|
E|---------------------------------------------------------------------------|


e|---------------------------------------------------------------------------|
B|-----------------------------13--------------------------------------------|
G|----------10----10--12b14----------14b12---10-12------10--8--7~------------|
D|----12-13----------------------------------------------------8~------------|
A|---------------------------------------------------------------------------|
E|---------------------------------------------------------------------------|


e|----------------------------------------------------------------------------|
B|----------------------------------------------------------------------------|
G|---5~---8b7-------5~----------12--------------12----10----8----7------------|
D|---7~-------------5~--------------------------13----12----10---6------------|
A|----------------------------------10----------------------------------------|
E|----------------------------------------------------------------------------|
Tap to rate this tab
 
# A B C D E F G H I J K L M N O P Q R S T U V W X Y Z