Song name
# A B C D E F G H I J K L M N O P Q R S T U V W X Y Z

Vetiver - The Swimming Song tab

                                 || VETIVER - SWIMMING SONG ||

These aren't the chords, this is the into part which is basically the whole song.
I'm pretty sure this is correct. Enjoy :) 

h> = hammer-on
p> = pull-off

Tabbed by Fabian BR

e|-----------------------------------------------------------------------------------|
B|-----3----1----1p>0----------------------------------------------------------------|
G|--------------------2---0---0h>2---4p>2---0---------------------0---0h>2---0-------|
D|------------------------------------------------2---2------0h>2--------------------|
A|-----------------------------------------------------------------------------------|
E|-----------------------------------------------------------------------------------|

e|-----------------------------------------------------------------------------------|
B|-----------------------------------------------------------------------------------|
G|----0h>2----4p>2---0----------0h>2----4p>2---0---0---------------------------------|
D|------------------------2---2--------------------------------0-...start again------|
A|-----------------------------------------------------------------------------------|
E|-----------------------------------------------------------------------------------|
Tap to rate this tab
 
# A B C D E F G H I J K L M N O P Q R S T U V W X Y Z