Song name
# A B C D E F G H I J K L M N O P Q R S T U V W X Y Z

Vetiver - Down At El Rio tab

-------------------------------------------------------------------------------
			     Down at el Rio - Vetiver
-------------------------------------------------------------------------------
Tabbed by: imnotlarry
Email: pescado.rabioso@hotmail.com

Tuning: Standard




INTRO

e|10-10-10--7---10-10-10--7-----7-7--------7----7---------10-10-10--7--10-10|
B|----------------------------------10-8-----10---10------------------------|
G|---------------------------------------9----------------------------------|
D|--------------------------------------------------------------------------|
A|--------------------------------------------------------------------------|
E|--------------------------------------------------------------------------|


e|-7---7-7-------7--7-------------------------------------------------------|
B|--------10-8----10--10--8-------------------------------------------------|
G|------------9-------------9-----------------------------------------------|
D|--------------------------------------------------------------------------|
A|--------------------------------------------------------------------------|
E|--------------------------------------------------------------------------|


[G Am] X 5
Am Am7 G




VERSE

G Am
G Am
G Am
Am Am7 G

G Am
G Am
G Am
Am Am7 G


INTRO


vERSE


INTRO


VERSE


INTRO


ENDING (with "lala lala la")

C G
C G
Am G
Tap to rate this tab
# A B C D E F G H I J K L M N O P Q R S T U V W X Y Z