Song name
# A B C D E F G H I J K L M N O P Q R S T U V W X Y Z

Vetiver - Amerilie tab

-------------------------------------------------------------------------------
			     Amerilie - Vetiver
-------------------------------------------------------------------------------
Tabbed by: imnotlarry
Email: pescado.rabioso@hotmail.com

Tuning: Standard


INTRO [x5]

e|---------------------------------------------------------------------------|
B|---------------------------------------------------------------------------|
G|---------------------------------------------------------------------------|
D|-5-x-x---5-5-5--5-x-x--5-5-5-5---3-x-x--3-3-3--3-x-x-3-3-3-3---------------|
A|-5-x-x---5-5-5--5-x-x--5-5-5-5---3-x-x--3-3-3--3-x-x-3-3-3-3---------------|
E|-3-x-x---3-3-3--3-x-x--0-3-3-0---1-x-x--1-1-1--1-x-x-0-1-1-0---------------|

VERSE [x4]


e|---------------------------------------------------------------------------|
B|---------------------------------------------------------------------------|
G|---------------------------------------------------------------------------|
D|-5-x-x---5-5-5--5-x-x--5-5-5-5---3-x-x--3-3-3--3-x-x-3-3-3-3---------------|
A|-5-x-x---5-5-5--5-x-x--5-5-5-5---3-x-x--3-3-3--3-x-x-3-3-3-3---------------|
E|-3-x-x---3-3-3--3-x-x--0-3-3-0---1-x-x--1-1-1--1-x-x-0-1-1-0---------------|

CHORUS

G
Bm E
Bm E
G


INTRO [x2]


VERSE [x4]


CHORUS

G
Bm E
Bm E
G F

ENDING

G F
G F
G F
Tap to rate this tab
 
# A B C D E F G H I J K L M N O P Q R S T U V W X Y Z