Song name
# A B C D E F G H I J K L M N O P Q R S T U V W X Y Z

Vetiver - Been So Long tab


"Been So Long"



Sounds good to me doing something like this:


    D

e---------------------------------------------|
B-------------2------------------2------------|
G---------------------------------------------|
D-----------0------------------0--------------|
A---0-----------------0-----------------------|
E---------------------------------------------|


or this:


    D

e---------------------------------------------|
B-------------2------------------2------------|
G---------------------------------------------|
D-----------0-------0----------0-------2------|
A---0-------------0---0--------------0---0----|
E---------------------------------------------|


or you can just play

D   A    G    D

I can't believe that you're knocking
Knocking on my door
Oh it's been so long, been so long, oh
Fate has a way of showing harm where you belong
Oh it's been so long, been so long, oh

I can't believe that you're knocking
Knocking on my door
Oh it's been so long, been so long, oh
Fate has a way of showing harm where you belong
Oh it's been so long, been so long, oh

The sound of my heart stopping is surprising some
It's been so long, been so long, oh
Time has a way of knowing what we have in store
Oh it's been so long, been so long, oh

D   A    G    D
D   A    G    D....



tabbed by shmortisborg
Tap to rate this tab
# A B C D E F G H I J K L M N O P Q R S T U V W X Y Z