Song name
# A B C D E F G H I J K L M N O P Q R S T U V W X Y Z

Vetiver - You May Be Blue tab


"You May Be Blue"



**Capo 2nd fret**

Something like this:

     Dm

e--------------------------------------------------------------------|
B------(3)--------(3)--------(3)--------(3)--------(3)--------(0)----|
G--------(2)----(2)-(2)----(2)-(2)----(2)-(2)----(2)-(2)----(2)-(2)--|
D----(0)------(0)--------(0)--------(0)--------(0)--------(0)--------|
A--------------------------------------------------------------------|
E--------------------------------------------------------------------|


     Dm

e----1----0----------------------------------------------------------|
B------------3------1---0----------------3---------(3)--------(3)----|
G-----(2)-----(2)-----------3--2-----0h2--(2)----(2)-(2)----(2)-(2)--|
D---(0)---------(0)----(0)----------(0)--------(0)--------(0)--------|
A--------------------------------------------------------------------|
E--------------------------------------------------------------------|

Dm
You may be blue
But you dark my day
Throw shadows on my way
Break my mind
Am                                      G
While you say that youll be treating me kind

Who are you foolin?


My time with you
Beat a thorn-filled path
Blood fell where we passed through
blood red with (?)
(????????????????)
(????????????????)

e---5--5-----6--6-5---3--3-----5--3---1----(3)--------(3)--------(3)----|
B---6--6-----8--8-6---4--4-----6--4---3--(2)-(2)----(2)-(2)----(2)-(2)--|
G---5--5-----7--7-5---3--3-----5--3---2-----------(0)--------(0)--------|
D-----------------------------------------------------------------------|
A-----------------------------------------------------------------------|
E-----------------------------------------------------------------------|


e---5--5-----6--6-5---3--3-----5--3---6------6--5------5-5-5-5-5-6-6/1--|
B---6--6-----8--8-6---4--4-----6--4---8-----8-8-6------6-6-6-6-6-8-8/3--|
G---5--5-----7--7-5---3--3-----5--3---7---------5------7-7-7-7-7-7-7/2--|
D------------------------------------------------------7-7-7-7-7-5-5----|
A------------------------------------------------------5-5-5-5-5-5-5----|
E-----------------------------------------------------------------------|

I know my way
and it wont be long
You're gonna wake one day
To find me gone
and there wont be nothin left but "goodbye"
nothin left but "goodbye"




tabbed by shmortisborg
Tap to rate this tab
 
# A B C D E F G H I J K L M N O P Q R S T U V W X Y Z