Song name
# A B C D E F G H I J K L M N O P Q R S T U V W X Y Z

Veto - Reset tab

this song is a bit hard for your arm to play, because theres not really i break in the 
but i have figured out how to play it anyway. its only the solo thing in the last part of 
song im a bit unsure about :D.

intro:
e-----------------------------------------------------------|
b-----------------------------------------------------------|
g-----------------------------------------------------------|
d-5-5-5-5-5-5-5-6-6-6-6-5-5-5-5-5-5-5-5-5-5-6-6-6-6-5-5-5-5-|
a-3-3-3-3-3-3-3-3-3-3-3-3-3-3-3-3-3-3-3-3-3-3-3-3-3-3-3-3-3-|
E-----------------------------------------------------------|

e-----------------------------------------------------------------|
b-----------------------------------------------------------------|
g-----------------------------------------------------------------|
d-7-7-7-7-7-7-7-7-7-7-7-7-7-7-7-7--5-5-5-5-5-5-5-5-6-6-6-6-5-5-5--| x4
a-4-4-4-4-6-6-6-6-4-4-4-4-6-6-6-6--3-3-3-3-3-3-3-3-3-3-3-3-3-3-3--|
E-----------------------------------------------------------------|

this part of the song is really hard to tap with the correct amount of strokes. listen 
the song an you will figure it out.

e-------------------------------------------------------------|
b-------------------------------------------------------------|
g-------------------------------------------------------------|
d-------------------------------------------------------------|
a-7-7-7-7-7-7-7-7-7-7-7-7-7-7-7-7-7-7-7-7-7-7-7-7-7-7-7-7-7-7-|
E-5-5-5-5-5-5-5-5-5-5-5-5-5-5-5-5-5-5-5-5-5-5-5-5-5-5-5-5-5-5-|

e---------------------------------------------------------------------------|
b---------------------------------------------------------------------------|
g---------------------------------------------------------------------------|
d---------------------------------------------------------------------------|
a-8-8-8-8-8-8-8-8-8-6-6-6-6-6-6-6-6-6-6-6-6-6-6-6-6-6-6-6-6-3-3-3-3-3-3-3-3-|
E-6-6-6-6-6-6-6-6-6-4-4-4-4-4-4-4-4-4-4-4-4-4-4-4-4-4-4-4-4-5-5-5-5-5-5-5-5-|

e---------------------------------------------------------------------------|
b---------------------------------------------------------------------------|
g---------------------------------------------------------------------------|
d---------------------------------------------------------------------------|
a-7-7-7-7-7-7-7-7-7-7-7-7-7-7-7-7-7-7-7-7-7-7-7-7-7-7-7-7-7-7-7-7-7-7-7-7-7-|
E-5-5-5-5-5-5-5-5-5-5-5-5-5-5-5-5-5-5-5-5-5-5-5-5-5-5-5-5-5-5-5-5-5-5-5-5-5-|

e------------------------------------------------------------|
b------------------------------------------------------------|
g------------------------------------------------------------|
d-5-5-5-5-5-5-5-6-6-6-6-5-5-5-5-5-5-5-5-5-5-6-6-6-6-5-5-5-5--|
a-3-3-3-3-3-3-3-3-3-3-3-3-3-3-3-3-3-3-3-3-3-3-3-3-3-3-3-3-3--|
E------------------------------------------------------------|

e-----------------------------------------------------------------|
b-----------------------------------------------------------------|
g-----------------------------------------------------------------|
d-7-7-7-7-7-7-7-7-7-7-7-7-7-7-7-7--5-5-5-5-5-5-5-5-6-6-6-6-5-5-5--| x4
a-4-4-4-4-6-6-6-6-4-4-4-4-6-6-6-6--3-3-3-3-3-3-3-3-3-3-3-3-3-3-3--|
E-----------------------------------------------------------------|

not 100% perfect with the amount of strokes, but close.

e-------------------------------------------------------------|
b-------------------------------------------------------------|
g-------------------------------------------------------------|
d-------------------------------------------------------------|
a-7-7-7-7-7-7-7-7-7-7-7-7-7-7-7-7-7-7-7-7-7-7-7-7-7-7-7-7-7-7-|
E-5-5-5-5-5-5-5-5-5-5-5-5-5-5-5-5-5-5-5-5-5-5-5-5-5-5-5-5-5-5-|

e---------------------------------------------------------------------------|
b---------------------------------------------------------------------------|
g---------------------------------------------------------------------------|
d---------------------------------------------------------------------------|
a-8-8-8-8-8-8-8-8-8-6-6-6-6-6-6-6-6-6-6-6-6-6-6-6-6-6-6-6-6-3-3-3-3-3-3-3-3-|
E-6-6-6-6-6-6-6-6-6-4-4-4-4-4-4-4-4-4-4-4-4-4-4-4-4-4-4-4-4-5-5-5-5-5-5-5-5-|

e---------------------------------------------------------------------------|
b---------------------------------------------------------------------------|
g---------------------------------------------------------------------------|
d---------------------------------------------------------------------------|
a-7-7-7-7-7-7-7-7-7-7-7-7-7-7-7-7-7-7-7-7-7-7-7-7-7-7-7-7-7-7-7-7-7-7-7-7-7-|
E-5-5-5-5-5-5-5-5-5-5-5-5-5-5-5-5-5-5-5-5-5-5-5-5-5-5-5-5-5-5-5-5-5-5-5-5-5-|

2:08 break in the song, where it turnes in to the electro part with the kind of solo thing.

at 3:20 the guitar solo begins along with the electro sounds.
something like this, but it can be a little hard to hear, due to all the sounds in the background.

e----------------------------------------------|
b-14-14-14-14-14-14-16-16-16-16-17-17-17-17-17-|
g----------------------------------------------|
d----------------------------------------------|
a----------------------------------------------|
E----------------------------------------------|
Tap to rate this tab
# A B C D E F G H I J K L M N O P Q R S T U V W X Y Z