Song name
# A B C D E F G H I J K L M N O P Q R S T U V W X Y Z

Veto - Spit It Out tab

this song is very easy, so just get right rythm :-).
use a whammy pedal with i small amount of gain. im feguering all this out myself, so 
can be som small mistakes in the power akkord part, but otherwise averything is right.

e-------------------------------|
b-------------------------------|
g-------------------------------|
d-------------------------------|
a-7-5-0---7-5-----7-5-0---7-5-8-|
E------------5------------------|


e----------------------------------------------------------|
b----------------------------------------------------------|
g----------------------------------------------------------|
d-7-7--9-9--6-5--9-9--7-7--6-5-----------------------------|
a-5-5--7-7--4-3--7-7--5-5--4-3---7-5-0--7-5---7-5-0--7-5-8-|
E---------------------------------5------------------------|


im not 100% sure about the last past of the song, but its close.
e------------------------------|
b------------------------------|
g------------------------------|
d-7-7--9-9--6-5--9-9--7-7--6-5-|
a-5-5--7-7--4-3--7-7--5-5--4-3-|
E------------------------------|
Tap to rate this tab
# A B C D E F G H I J K L M N O P Q R S T U V W X Y Z