Song name
# A B C D E F G H I J K L M N O P Q R S T U V W X Y Z

Veto - You Cant Afford It tab

the song is played with a bit soft disortion sound with a bit of delay.
Tuning: Drop D.


intro:
e----------------------------------------|
b----------------------------------------|
g----------------------------------------|
d--3--3-3-3--2--2-2-2--3--3-3-5--3-2-2-2-|
a-0--0-0-0--0--0-0-0--0--0-0-0--0-0-0-0--|
d----------------------------------------|

next part is at 0:42
i havn't counted how many notes he plays because he plays it so fast. you must figure it 
your self :).

e--------------------------------------|
b--------------------------------------|
g--------------------------------------|   x2
d--------------------------------------|
a-5-5-5-5-5-5-5-5-5-5-5-5-5-5-5-5-5----|
d-5-5-5-5-5-5-5-5-5-5-5-5-5-5-5-5-5----|

this part is the chorus there's to ways to play it, that sounds right i'll write both of 
again the number of notes is not accurate, you must figure out the timing.

e---------------------------------------------------------------------|
b---------------------------------------------------------------------|
g---------------------------------------------------------------------|
d---------------------------------------------------------------------|
a-5-5-5-5-5-5-5-5-5-3-3-3-3-3-3-3-8-8-8-8-8-8-8-8-8-5-5-5-5-5-5-5-5-5-|
d-5-5-5-5-5-5-5-5-5-3-3-3-3-3-3-3-8-8-8-8-8-8-8-8-8-5-5-5-5-5-5-5-5-5-|

e------------------------------------------------------------------------|
b------------------------------------------------------------------------|
g------------------------------------------------------------------------|
d-7-7-7-7-7-7-7-7-7-5-5-5-5-5-5-5-10-10-10-10-10-10-10-10-10-7-7-7-7-7-7-|
a-5-5-5-5-5-5-5-5-5-3-3-3-3-3-3-3-8--8--8--8--8--8--8--8--8--5-5-5-5-5-5-|
d------------------------------------------------------------------------|

e-----------------------------------|
b-----------------------------------|
g-----------------------------------|
d-----------------------------------|
a-5-5-5-5-5-5-5-5-5-5-5-5-5-5-5-5-5-|
d-5-5-5-5-5-5-5-5-5-5-5-5-5-5-5-5-5-|


e------------------------------------------------------------------------|
b------------------------------------------------------------------------|
g------------------------------------------------------------------------|
d-7-7-7-7-7-7-7-7-7-5-5-5-5-5-5-5-10-10-10-10-10-10-10-10-10-7-7-7-7-7-7-|
a-5-5-5-5-5-5-5-5-5-3-3-3-3-3-3-3-8--8--8--8--8--8--8--8--8--5-5-5-5-5-5-|
d------------------------------------------------------------------------|

e----------------------------------------|
b----------------------------------------|
g----------------------------------------|
d--3--3-3-3--2--2-2-2--3--3-3-5--3-2-2-2-|
a-0--0-0-0--0--0-0-0--0--0-0-0--0-0-0-0--|
d----------------------------------------|
Tap to rate this tab
 
# A B C D E F G H I J K L M N O P Q R S T U V W X Y Z