Song name
# A B C D E F G H I J K L M N O P Q R S T U V W X Y Z

Veto - You Are Knife tab

Tabbed by: Johan Carĝe
Email:Soyasoyzz@hotmail.com

Tuning: E,A,D,G,B,e


Intro
This is keyboard and bass playing but i tabbed for guitar anyway

e|--------------------------------------------------------------------------|
B|--------------------------------------------------------------------------|
G|--------------------------------------------------------------------------|
D|--7-7-7--5-5-5-----5-5-7-5-5-----7-7-7--3-3-3----3-3-5-3-3----------------|
A|--x-x-x--x-x-x-----x-x-x-x-x-----x-x-x--x-x-x----x-x-x-x-x----------------|
E|--5-5-5--3-3-3-----3-3-3-3-3-----5-5-5--1-1-1----1-1-1-1-1----------------|

Keyboard Theme

Keyboard and bass (guitar if you want..) is still playing the same but there is the 
theme and a guitar thing in the back. i think it is something like this:

repeat it under the whole theme

e|--------------------------------------------------------------------------|
B|--------------------------------------------------------------------------|
G|--------------------------------------------------------------------------|
D|-------7-7-7-7-7-7-7-7-7-7-7-7-9-9-9-7-7-7-7-7-7-7-7-7-7-7-7--------------|
A|--------------------------------------------------------------------------|
E|--------------------------------------------------------------------------|


Interlude

e|---------------------------------------------------------------------------|
B|---------------------------------------------------------------------------|
G|---9--10--9----10-7-9----14-12-10-7-9---5-7--------------------------------|
D|---9--10--9----10-7-9----14-12-10-7-9---5-7--------------------------------|
A|---7---8--7----8--5-7----12-10-8--5-7---3-5--------------------------------|
E|---------------------------------------------------------------------------|

Secondary Verse riff

Okay here is what the guitar actualy plays latter in the song

e|--------------------------------------------------------------------------|
B|--------------------------------------------------------------------------|
G|------9-9-9-9-9-9\7-7-7-7-7-7-7-7-x-7-x-7---9-9-9-9-9-9-9-9-9\5-5-5-5-5-5-|
D|------x-x-x-x-x-x\x-x-x-x-x-x-x-x-x-x-x-x---x-x-x-x-x-x-x-x-x\x-x-x-x-x-x-|
A|------7-7-7-7-7-7\5-5-5-5-5-5-5-5-x-5-x-5---7-7-7-7-7-7-7-7-7\3-3-3-3-3-3-|
E|--------------------------------------------------------------------------|


End Riff

e|-----------------------------------------------------------------------------|
B|-----------------------------------------------------------------------------|
G|--2-2-2-2-2-2-2-2-2-2-2--7-7-7-7-7-7-7-7-7-7-7-9-9-9-9-9-7-7-7-7-7-----------|
D|--0-0-0-0-0-0-0-0-0-0-0--5-5-5-5-5-5-5-5-5-5-5-5-5-5-5-5-5-5-5-5-5-------A|--|
E|-----------------------------------------------------------------------------|

00:00-00:40 Intro
00:40-00:53 Keyboard Theme
00:53-01:15 intro
01:15-01:30 Interlude
01:30-01:54 Keyboard Theme
01:54-01:59 Intro
01:59-02:16 Secondary Verse riff
02:16-02:47 Interlude
02:47-03:10 End Riff

think thats it
Tap to rate this tab
 
# A B C D E F G H I J K L M N O P Q R S T U V W X Y Z