Song name
# A B C D E F G H I J K L M N O P Q R S T U V W X Y Z

Vex Red - Itch tab

VEX RED
ITCH


Drop D Tuning

Intro:

|-----------|---------------------------------------------|
|-----------|---------------------------------------------|
|-----------|---------------------------------------------|
|--0--0--0--|--9-9\--3-3--9-9\--3-3--9-9\--3-3--9-9-9-9\--|
|--0--0--0--|--9-9\--3-3--9-9\--3-3--9-9\--3-3--9-9-9-9\--|
|--0--0--0--|--9-9\--3-3--9-9\--3-3--9-9\--3-3--9-9-9-9\--|
   .......

Verse Part 1:

|---------|
|---------|
|---------|
|--3--/9--|
|---------|
|---------| 

Verse Part 2 :

|---------------|
|---------------|
|-------12--11--|
|--9------------|
|---------------|
|---------------| 

Chorus:

|-----------|---------------------------------------------------|
|-----------|---------------------------------------------------|
|-----------|---------------------------------------------------|
|--0--0--0--|--/9-9--\3-3--/9-9--\3-3--/9-9--\3-3--/9h10-10-10--|
|--0--0--0--|--/9-9--\3-3--/9-9--\3-3--/9-9--\3-3--/9h10-10-10--|
|--0--0--0--|--/9-9--\3-3--/9-9--\3-3--/9-9--\3-3--/9h10-10-10--|
   .......

Outro:

|--------------|
|--------------|
|--------5-----|
|--9--3--5--4--|
|--9--3--3--4--|
|--9--3-----4--|

VEX RED RULE!!!
A_Violet_Fluid@hotmail.com
Tap to rate this tab
# A B C D E F G H I J K L M N O P Q R S T U V W X Y Z