Guitaretab - guitar tabs
Song name
# A B C D E F G H I J K L M N O P Q R S T U V W X Y Z
Home / V / Vex Red / Dermo tab

Vex Red - Dermo tab

Vex Red - Dermo - tabbed by [zEro] calde@email.it

-drop d tuning,high to low: eBGDAD-

Intro\verse: (piano,but sounds good on guitar)
clean
E [--------------------------]
B [--------------------------]
G [--------------------------]
D [---6-7-9-6-----46-7-4-9---]
A [--5-----------0-----------]
E [-0----------------------0-]

Chorus:
heavy fuzz

E [-------]
B [-------]
G [----6b-]
D [-------]
A [----4b-]
E [-0-----]
[ Tab from: http://www.guitaretab.com/v/vex-red/31012.html ]
Post Chorus:
heavy fuzz
E [---------------------------------------]
B [---------------------------------------]
G [---------------------------------------]
D [---------------------------------------]
A [-------5h7-----------------5h7---------]
E [-1p0-0-----0-0-1p0---1p0-0-----0-0-1p0-]

Break:
strange effect
E [---------------------------]
B [---------------------------]
G [---------------------------]
D [---------------------------]
A [---------------------------]
E [-0---1--0---1-0---1--0---1-]

Outro:
heavy fuzz
E [---------------------------------------]
B [---------------------------------------]
G [---------------------------------------]
D [---------------------------------------]
A [---------7-------------------7---------]
E [-1p0-0-----0-0-1p0---1p0-0-----0-0-1p0-]
Related for Dermo tab