Song name
# A B C D E F G H I J K L M N O P Q R S T U V W X Y Z

Viatrophy - Chronicles tab

Viatrophy - Chronicles.

Palm Mutes = .
Pinch harmonics = *
hammer-ons = h
Pull offs = p
Let Ring = ~
slide down = \
slide up = /

NOTE*
I learnt this by ear, so this tab may not be 100% correct.
ive only tabbed out one guitar, the second guitar is pretty much the same but in 
some parts its different, its easy to figure out.

ALSO*
there is a missing riff, this is because i found it hard to figure out by ear. so 
if anyone has the tab to that riff or if anyone has figured it out.
please leave it in a comment or email me it, so i then can put it on here :)
Thank you
enjoy...


00.00 - 00.06
e|------------------| \ 
B|------------------|  \ 
G|------------------|   \ X4
D|------------------|   /
A|-1-0-1-3-4-3-1-0--|  /
D|-1-0-1-3-4-3-1-0--| /
pm . . . . . . . .


00.06 - 00.08
e|------------------| \ 
B|------------------|  \ 
G|------------------|   \ X2
D|------------------|   /
A|------------------|  /
D|-1-0-1-3-4-3-1-0--| /


00.08 - 00.10
e|---------------------------|   
B|---------------------------|  
G|---------------------------|   
D|---------------------------|   
A|-1-0-1-3-4-3-1-0-1-0-1-3-4-|  
D|-1-0-1-3-4-3-1-0-1-0-1-3-4-| 
pm . . . . . . . . . . . . .


00.10 - 00.23
e|--------------------------------------------|  \ 
B|--------------------------------------------|   \
G|--------------------------------------------|    \ X2
D|--------------------------------------------|    /   (second time let the 
A|-11--11--11-1111--11--11--11-1111-11----*4~-|   /     1's ring a little)
D|-11--11--11-1111--11--11--11-1111-11-111----|  /
pm ..  ..  .. ....  ..  ..  .. .... .. ...


00.23 - 00.26
e|---------|   
B|---------|  
G|---------|   
D|-0~~~----|   
A|-0~~~----|  
D|-0~~~----| 

00.26 00.29
e|----------|   
B|----------|  
G|----------|   
D|----------|   
A|---1\3~~~-|  
D|----------| 


00.29 00.29
e|----------|   
B|----------|  
G|----------|   
D|----------|   
A|----------|  
D|--0000----| 


00.10 - 00.23
e|-------------------------------------------------------------|  
B|-------------------------------------------------------------|   
G|-------------------------------------------------------------|\    
D|-------------------------------------------------------------| \    
A|-------------------------------------------------------------|  \       
D|-00000000110011334433441100000000-00-1h3p1h3p1 00-4h7p4h7p4--|   \
pm ................................ ..           ..                 \
                                                                    /x4
                                       Second time, play at end.   /
                                       e|---------------------|   /   
                                       B|---------------------|  /  
                                       G|---------------------| /   
                                       D|---------------------|/   
                                       A|---------------------|  
                                       D|--000000-000000-0000-|
                                       pm  ...... ...... ....



e|-----------|   
B|-----------|  
G|-----------|   
D|-----------|   
A|--11-1111--|  
D|--11-1111--|
pm  .. ....


e|-------------------------------------------------------------|  
B|-------------------------------------------------------------|   
G|----------------THIS IS THE MISSING RIFF I--CAN'T------------|   
D|----------------FIRGURE OUT,-PLEASE EMAIL IT ME -------------|  
A|----------------IF YOU WHAT IT IS.---------------------------|       
D|-------------------------------------------------------------|

e|-----------|   
B|-----------|  
G|-----------|   
D|-----------|   
A|--11-1111--|  
D|--11-1111--|
PM  .. ....


E|-------------------------------------------------------------|  
B|-------------------------------------------------------------|   
G|-------------------------------------------------------------|\    
D|-------------------------------------------------------------| \    
A|-------------------------------------------------------------|  \       
D|-00000000110011334433441100000000-00-1h3p1h3p1 00-4h7p4h7p4--|   \
pm ................................ ..           ..                 \
                                                                    /x4
                                       Second time, play at end.   /
                                       e|---------------------|   /   
                                       B|---------------------|  /  
                                       G|---------------------| /   
                                       D|---------------------|/   
                                       A|---------------------|  
                                       D|--000000-000000-0000-|
                                       pm  ...... ...... ....


e|-----------|   
B|-----------|  
G|-----------|   
D|-----------|   
A|--11-1111--|  
D|--11-1111--|
pm  .. ....


e|-------------------------------------------------------------|  
B|-------------------------------------------------------------|   
G|----------------THIS IS THE MISSING RIFF I--CAN'T------------|   
D|----------------FIRGURE OUT,-PLEASE EMAIL IT ME -------------|  
A|----------------IF YOU WHAT IT IS.---------------------------|       
D|-------------------------------------------------------------|


e|-------------------------------------|   
B|-------------------------------------|  
G|-------------------------------------|   
D|-------------------------------------|          
A|--1-0-4~~--4-0-8~~---3\7~~-3\8~~-----|               \
D|--1-0-4~~--4-0-8~~-------------------|                \
pm  . .      . .                                         \   
                                                         /X2
e|----------------------------------------------------| /  
B|----------------------------------------------------|  
G|----------------------------------------------------|   
D|----------------------------------------------------|   
A|--1-0-4~~--4-0-8~~---8------------------------------|  
D|--1-0-4~~--4-0-8~~----7~~-4-6-4~~-4-6-4-3-4~~-------|
                       NOT SURE ABOUT THIS RIFF.         


e|----------------------|   
B|----------------------|  
G|----------------------|   x2
D|----------------------|   
A|----------------------|  
D|--111-11-1-444-44-4---|
pm  .. ... . ... .. .



e|----------------------------------------------------|   
B|----------------------------------------------------|  
G|----------------------------------------------------|   
D|----------------------------------------------------|   
A|----------------------------------------------------|  
D|--11114441333-11114441333-11114441333-11114441333---|        

       THEN

e|-----------------------------------------------------|   
B|-----------------------------------------------------|  
G|-----------------------------------------------------|   
D|-----------------------------------------------------|   
A|-----------------------------------------------12\\--|  
D|--44448884777-44448884777-44448884777-44448884-12\\--|


e|----------------------------------------------------|   
B|----------------------------------------------------|  
G|----------------------------------------------------|   
D|----------------------------------------------------|   
A|--11114441333-11114441333-11114441333-11114441333---|  
D|--11114441333-11114441333-11114441333-11114441333---|        
pm  ........... ........... ........... ...........


e|-----------------------------------------------------|   
B|-----------------------------------------------------|  
G|-----------------------------------------------------|   
D|-----------------------------------------------------|   
A|--44448884777-44448884777-44448884777-44448884-12\\--|  
D|--44448884777-44448884777-44448884777-44448884-12\\--|



e|----------------------------------------------------|   
B|----------------------------------------------------|  
G|----------------------------------------------------|   
D|----------------------------------------------------|   
A|--11114441333-11114441333-11114441333-11114441333---|  
D|--11114441333-11114441333-11114441333-11114441333---|        
pm  ........... ........... ........... ...........
       

e|-----------------------------------------------------|   
B|-----------------------------------------------------|  
G|-----------------------------------------------------|   
D|-----------------------------------------------------|   
A|--44448884777-44448884777-44448884777-44448884777----|  
D|--44448884777-44448884777-44448884777-44448884777----|


e|--------------------------------------------|  \ 
B|--------------------------------------------|   \
G|--------------------------------------------|    \ X2
D|----------------------------------------*6~-|    /   (second time let the 
A|-11--11--11-1111--11--11--11-1111-11--------|   /     1's ring a little)
D|-11--11--11-1111--11--11--11-1111-11-111----|  /
pm ..  ..  .. ....  ..  ..  .. .... .. ...


e|----------------------|   
B|----------------------|  
G|----------------------|   
D|-1~~~~~~-10~~~/9~~~---| x4  
A|-1~~~~~~-10~~~/9~~~---|  
D|-1~~~~~~-10~~~/9~~~---| 


e|-----------------------------------------------------| 
B|-----------------------------------------------------|   
G|-----------------------------------------------------|     
D|-----------------------------------------------------|       
A|-11-1111-11-11-1111-1010-10101010-1010-1010-10101010-|  \     
D|-11-1111-11-11-1111-1010-10101010-1010-1010-10101010-|   \
                                                           /x2
e|---------------------|                                  /
B|---------------------|   
G|---------------------|     
D|---------------------|       
A|-99-9999-99-99-9999--|       
D|-99-9999-99-99-9999--|
 

e|----------------------|   
B|----------------------|  
G|----------------------|   
D|-1~~~~~~-10~~~/9~~~---| x4  
A|-1~~~~~~-10~~~/9~~~---|  
D|-1~~~~~~-10~~~/9~~~---| 

e|-----------------|   
B|-----------------|  
G|-----------------|   
D|-----------------| x4  
A|--0000-3333------|  
D|--0000-3333------|


e|----------------------------------------------------------| 
B|----------------------------------------------------------|   
G|----------------------------------------------------------|     
D|----------------------------------------------------------|       
A|----------------------------------------------------------|  X4    
D|-1111111111119999999101010101010-111111111111000000333333-|

thats it!

great song


Tap to rate this tab
# A B C D E F G H I J K L M N O P Q R S T U V W X Y Z