Song name
# A B C D E F G H I J K L M N O P Q R S T U V W X Y Z

Viatrophy - Seas Of Storms tab

-------------------------------------------------------------------------------
Viatrophy : Seas of Storms
-------------------------------------------------------------------------------

Tabbed by: Foster (bornofmaya)
Website: http://www.last.fm/user/bornofmaya
Tuning: Drop C#
Notes: I orginally tabbed this song in Drop B, but I think they play it Drop C#. So I 
all the notes down 2 frets.


Riff 1 (0:00)
Repeat: x2

|-----------------------------------------------------------|
|-----------------------------------------------------------|
|-----------------------------------------------------------|
|-----------------------0-----0---0---0---------------------|
|-0-0-0-0-0-0-000-0-0-0-0-0-0-0-0-0-0-0-000-0-0-0-0-0-0-000-|
|-1-1-1-1-1-1-111-1-1-1-1-1-1-1-1-1-1-1-111-1-1-1-1-1-1-111-|
  * * * * * * *** * * *   * *   *   *   *** * * * * * * ***

(0:15)
Repeat: x4

|-----------------------------------------------------------|
|-----------------------------------------------------------|
|-----------------------------------------------------------|
|-----------------------0-----0---0---0---------------------|
|-0-0-0-0-0-0-000-0-0-0-0-0-0-0-0-0-0-0-000-0-0-0-0-0-0-000-|
|-0-0-0-0-0-0-000-0-0-0-0-0-0-0-0-0-0-0-000-0-0-0-0-0-0-000-|
  * * * * * * *** * * *   * *   *   *   *** * * * * * * ***

Riff 2 (0:42)
Repeat: x2

|----------------------------------------------------------|
|--------------------------------------------------------3-|
|--------------------------------------------------2h3h5---|
|----------------------------------------------------------|
|-000-000-000-000-000-000-000-000-000-000-000-000----------|
|-000-000-000-000-000-000-000-000-000-000-000-000----------|
  *** *** *** *** *** *** *** *** *** *** *** ***

(0:56)
Repeat: x2

|----------------------------------------------------------------|
|----------------------------------------------------------------|
|----------------------------------------------------------------|
|----------------------------------------------------------------|
|-111-11-11-11-11-11-11-11-11-11-11-11-11-11-11-11-11-11-11-0000-|
|-111-11-11-11-11-11-11-11-11-11-11-11-11-11-11-11-11-11-11-0000-|
  *** ** ** ** ** ** ** ** ** ** ** ** ** ** ** ** ** ** ** ****

|-----------------------------------------------------|
|-----------------------------------------------------|
|-----------------------------------------------------|
|-----------------------------------------------------|
|-000-000-000-000-000-000-000-000-000-000-000-000-0-0-|
|-000-000-000-000-000-000-000-000-000-000-000-000-0-0-|
  *** *** *** *** *** *** *** *** *** *** *** *** * *

(1:16)

|----------------------------------------------------------------|
|----------------------------------------------------------------|
|----------------------------------------------------------------|
|----------------------------------------------------------------|
|-111-11-11-11-11-11-11-11-11-11-11-11-11-11-11-11-11-11-11-0000-|
|-111-11-11-11-11-11-11-11-11-11-11-11-11-11-11-11-11-11-11-0000-|
  *** ** ** ** ** ** ** ** ** ** ** ** ** ** ** ** ** ** ** ****

(1:22)
Repeat: x2

|-----------------------------------------------------------|
|-----------------------------------------------------------|
|-----------------------------------------------------------|
|-----------------------0-----0---0---0---------------------|
|-0-0-0-0-0-0-000-0-0-0-0-0-0-0-0-0-0-0-000-0-0-0-0-0-0-000-|
|-1-1-1-1-1-1-111-1-1-1-1-1-1-1-1-1-1-1-111-1-1-1-1-1-1-111-|
  * * * * * * *** * * *   * *   *   *   *** * * * * * * ***

Riff 3 (1:36)
Repeat: A x2 + B x4

A
|-----------------------------------------------------------------|
|-----------------------------------------------------------------|
|-----------------------------------------------------------------|
|-------12-----12------15---------15-----12-----12---13---12---10-|
|-12-13-----13-----12-------12-13----12------13-------------------|
|-----------------------------------------------------------------|

B
|-----------------------------------------------------------|
|-----------------------------------------------------------|
|-----------------------------------------------------------|
|-----------------------0-----0---0---0---------------------|
|-0-0-0-0-0-0-000-0-0-0-0-0-0-0-0-0-0-0-000-0-0-0-0-0-0-000-|
|-0-0-0-0-0-0-000-0-0-0-0-0-0-0-0-0-0-0-000-0-0-0-0-0-0-000-|
  * * * * * * *** * * *   * *   *   *   *** * * * * * * ***

(2:00)

|---------|
|---------|
|---------|
|----5-5~-|
|-55-5-5~-|
|-55-5-5~-|
  **

Riff 3 Clean (2:00)
Repeat: x4

|-------------------------------------------------------------------|
|-------------------------------------------------------------------|
|-------------------------------------------------------------------|
|-------12-12---------15-15---------12-12---------13-13-------10-10-|
|-12-13---------12-13---------12-13---------12-13-------12-13-------|
|-------------------------------------------------------------------|

Riff 4 (2:43)
Repeat: x2

|-----------------------------------------------------------|
|-----------------------------------------------------------|
|-----------------------------------------------------------|
|-----------------------1-----1---1---1---------------------|
|-1-1-1-1-1-1-111-1-1-1-1-1-1-1-1-1-1-1-111-1-1-1-1-1-1-111-|
|-1-1-1-1-1-1-111-1-1-1-1-1-1-1-1-1-1-1-111-1-1-1-1-1-1-111-|
  * * * * * * *** * * *   * *   *   *   *** * * * * * * ***

|-----------------------------------------------------------|
|-----------------------------------------------------------|
|-----------------------5-----5---5---5---------------------|
|-5-5-5-5-5-5-555-5-5-5-5-5-5-5-5-5-5-5-555-5-5-5-5-5-5-555-|
|-3-3-3-3-3-3-333-3-3-3-3-3-3-3-3-3-3-3-333-3-3-3-3-3-3-333-|
|-----------------------------------------------------------|
  * * * * * * *** * * *   * *   *   *   *** * * * * * * ***

(3:14)

|--------------|
|--------------|
|-----------5~-|
|-1~--------5~-|
|-1~--------3~-|
|-1~-----------|

Tapping Riff 5 (3:14)
Repeat: I, II x4

I
Pattern: A x12, B x6, C x2, D x4

A         B         C         D
|---------|---------|---------|---------|
|---------|---------|---------|---------|
|---------|---------|---------|---------|
|---------|---------|---------|---------|
|-13p10p6-|-15p10p6-|-17p10p6-|-18p10p6-|
|---------|---------|---------|---------|
  T         T         T         T

II
Pattern: A x6, B x6

A         B
|---------|---------|
|---------|---------|
|---------|---------|
|---------|---------|
|-13p10p6-|-12p10p6-|
|---------|---------|
  T         T

(3:25)
Repeat: until end

|----------------------------------------|
|----------------------------------------|
|----------------------------------------|
|----------------------------------------|
|-1-1-1-1-1-1-1-1-1-1-1-1-1-1-1-1-1-1111-|
|-1-1-1-1-1-1-1-1-1-1-1-1-1-1-1-1-1-1111-|
  * * * * * * * * * * * * * * * * * ****

|----------------------------------------|
|----------------------------------------|
|----------------------------------------|
|-5-5-5-5-5-5-5-5-5-5-5-5-5-5-5-5-5-5555-|
|-3-3-3-3-3-3-3-3-3-3-3-3-3-3-3-3-3-3333-|
|----------------------------------------|
  * * * * * * * * * * * * * * * * * ****

(4:07)
Repeat: until end

|-------------------------------------------------------------------------|
|-------------------------------------------------------------------------|
|-------------------------------------------------------------------------|
|-12-12-12-12-12-12-12-12-12-12-12-12-10-10-10-10-10-10-10-10-10-10-10-10-|
|-------------------------------------------------------------------------|
|-------------------------------------------------------------------------|

|-------------------------------------------------------------------------------------|
|-------------------------------------------------15-15-15-15-13-13-13-13-------------|
|-12-12-12-12-12-12-12-12-12-12-12-12-15-15-15-15-------------------------14-14-14-14-|
|-------------------------------------------------------------------------------------|
|-------------------------------------------------------------------------------------|
|-------------------------------------------------------------------------------------|
Tap to rate this tab
# A B C D E F G H I J K L M N O P Q R S T U V W X Y Z