Guitaretab - guitar tabs
Song name
# A B C D E F G H I J K L M N O P Q R S T U V W X Y Z

Viatrophy - Draining What Remains tab

--------------------------------------------------------------------------------
			  Draining What Remains - Viatrophy
--------------------------------------------------------------------------------
Tabbed by: Finch
Email:imcursedtostone@aol.com

Tuning: D A D G B e
                                                                               
e|---------------------------------------------------------------------------|
B|---------------------------------------------------------------------------|
G|---------------------------------------------------------------------------|
D|---------------------------------------------------------------------------|
A|8-7-5--4-5--7777778877775555-8-7-1------000055555555----000044444444-------|
D|------------------------------------3333------------2222-------------------|
                                                                               
e|---------------------------------------------------------------------------|
B|---------------------------------------------------------------------------|
G|---------------------------------------------------------------------------|
D|---------------------------------------------------------------------------|
A|8-7-5--4-5--7777778877775555-8-7-1------000055555555----000044444444-------|
D|------------------------------------3333------------2222-------------------|

e|---------------------------------------------------------------------------|
B|---------------------------------------------------------------------------|
G|---------------------------------------------------------------------------|
D|----------------------5hp5--8----------------------------------------------|
A|--8-7-5-4-5-1-4--8-7-5----87-757--8-7-5-4-5-1-4---5-5-5---4-4-4------------|
D|00-0-0-0-0-0-0-00-0-0-----------00-0-0-0-0-0-0--33-3-3--22-2-2-------------|
PM.. . . . . . .. . .           .. . . . . . .  .. . .  .. . .

e|---------------------------------------------------------------------------|
B|---------------------------------------------------------------------------|
G|---------------------------------------------------------------------------|
D|----------------------5hp5--8---------------------5-5-5---3-3-3------------|
A|--8-7-5-4-5-1-4--8-7-5----87-757--8-7-5-4-5-1-4----------------------------|
D|00-0-0-0-0-0-0-00-0-0-----------00-0-0-0-0-0-0--33-3-3--22-2-2-------------|
PM.. . . . . . . .. . .           .. . . . . . .  .. . .  .. . .

e|---------------------------------------------------------------------------|
B|---------------------------------------------------------------------------|
G|---------------------------------------------------------------------------|
D|---------------------------------------------------------------------------|
A|--5-5-5---4-4-4-------------4444555511114444--5-5-5---4-4-4----------------|
D|33-3-3--22-2-2--0-00-000-000----------------33-3-3--22-2-2-----------------|
PM.. . .  .. . .    ..                      .. . .  .. . .
e|---------------------------------------------------------------------------|
B|---------------------------------------------------------------------------|
G|---------------------------------------------------------------------------|
D|-----------------------------------5-5-5---3-3-3---------------------------|
A|1h4p1-----------4h7p4------------------------------------------------------|
D|-----000-000-000-----000-000-000-33-3-3--22-2-2--0-00-000-000--------------|
PM                           .. . .  .. . .  . ..     
e|---------------------------------------------------------------------------|
B|---------------------------------------------------------------------------|
G|---------------------------------------------------------------------------|
D|5555777733335555--5-5-5---3-3-3--------------------------------------------|
A|--------------------------------1h4p1---4h7p4---5h8p5---10h13p10-----------|
D|----------------33-3-3--22-2-2-------000-----000-----000--------000--------|
PM                .. . .  .. . .                                               
e|---------------------------------------------------------------------------|
B|---------------------------------------------------------------------------|
G|---------------------------------------------------------------------------|
D|----------------------5hp5--8----------------------------------------------|
A|--8-7-5-4-5-1-4--8-7-5----87-757--8-7-5-4-5-1-4---5-5-5---4-4-4------------|
D|00-0-0-0-0-0-0-00-0-0-----------00-0-0-0-0-0-0--33-3-3--22-2-2-------------|
PM.. . . . . . .. . .           .. . . . . . .  .. . .  .. . .

e|---------------------------------------------------------------------------|
B|---------------------------------------------------------------------------|
G|---------------------------------------------------------------------------|
D|----------------------5hp5--8---------------------5-5-5---3-3-3------------|
A|--8-7-5-4-5-1-4--8-7-5----87-757--8-7-5-4-5-1-4----------------------------|
D|00-0-0-0-0-0-0-00-0-0-----------00-0-0-0-0-0-0--33-3-3--22-2-2-------------|
PM.. . . . . . . .. . .           .. . . . . . .  .. . .  .. . .
e|---------------------------------------------------------------------------|
B|---------------------------------------------------------------------------|
G|---------------------------------------------------------------------------|
D|---------------------------------------------------------------------------|
A|--5-5-5---4-4-4-------------4444555511114444--5-5-5---4-4-4----------------|
D|33-3-3--22-2-2--0-00-000-000----------------33-3-3--22-2-2-----------------|
PM.. . .  .. . .    ..     
e|---------------------------------------------------------------------------|
B|---------------------------------------------------------------------------|
G|---------------------------------------------------------------------------|
D|--------------------------------------5-5-5---3-3-3------------------------|
A|1h4p1---4h7p4---5h8p5---10h13p10-------------------------------------------|
D|-----000-----000-----000--------000-33-3-3--22-2-2--0-00-000-000-----------|
PM                                .. . .  .. . .    ..     
e|---------------------------------------------------------------------------|
B|---------------------------------------------------------------------------|
G|---------------------------------------------------------------------------|
D|5555777733335555--5-5-5---3-3-3-------------------------------------0------|
A|--------------------------------1h4p1---4h7p4---5h8p5---10h13p10----0------|
D|----------------33-3-3--22-2-2-------000-----000-----000--------000-0------|
PM                .. . .  .. . .                                                  
e|---------------------------------------------------------------------------|
B|---------------------------------------------------------------------------|
G|---------------------------------------------------------------------------|
D|---------------------------------------------------------------------------|
A|--5---4----------------5---4---1---1---5---4----------------5---4---1------|
D|23-323-3-00000-00000-23-323-323-323-323-323-3-00000-00000-23-323-323-323---|
PM..    . .  . .  . ..                . .  . .  . ..         
e|---------------------------------------------------------------------------|
B|---------------------------------------------------------------------------|
G|---------------------------------------------------------------------------|
D|------5---3----------------5---3-----------5---3----------------5---3---5--|
A|-----------------------------------5---5-----------------------------------|
D|/12\23-323-3-00000-00000-23-323-323-323-323-323-3-00000-00000-23-323-323---|
PM    ..    . .  . .  . ..                . .  . .  . ..     
e|---------------------------------------------------------------------------|
B|---------------------------------------------------------------------------|
G|---------------------------------------------------------------------------|
D|---------------------------------------------------------------------------|
A|---5-1h4p1---4h7p4---5h8p5---10h13p10---5555--------------------44445555---|
D|323-3-----000-----000-----000--------000----33333333333333333333-----------|
PM   .                              
e|---------------------------------------------------------------------------|
B|---------------------------------------------------------------------------|
G|---------------------------------------------------------------------------|
D|---------------------------------------------------------------------------|
A|7777--------------------7777888810101010--------------------10101010-------|
D|----55555555555555555555----------------88888888888888888888---------------|

e|---------------------------------------------------------------------------|
B|---------------------------------------------------------------------------|
G|---------------------------------------------------------------------------|
D|---------------------------------------------------------------------------|
A|1212121213131313-----------------------------------------------------------|
D|----------------1111111111111111111111111111111111111111-------------------|


[ Tab from: http://www.guitaretab.com/v/viatrophy/91837.html ]
e|---------------------------------------------------------------------------|
B|---------------------------------------------------------------------------|
G|---------------------------------------------------------------------------|
D|---------------------------------------------------------------------------|
A|----------------------------------------5555--------------------44445555---|
D|1212121212121212121212121212121212121212----33333333333333333333-----------|

e|---------------------------------------------------------------------------|
B|---------------------------------------------------------------------------|
G|---------------------------------------------------------------------------|
D|---------------------------------------------------------------------------|
A|7777--------------------7777888810101010--------------------10101010-------|
D|----55555555555555555555----------------88888888888888888888---------------|

e|---------------------------------------------------------------------------|
B|---------------------------------------------------------------------------|
G|---------------------------------------------------------------------------|
D|---------------------------------------------------------------------------|
A|1212121213131313-----------------------------------------------------------|
D|----------------1111111111111111111111111111111111111111-------------------|

e|---------------------------------------------------------------------------|
B|---------------------------------------------------------------------------|
G|---------------------------------------------------------------------------|
D|---------------------------------------------------------------------------|
A|---------------------------------------------------------------------------|
D|1212121212121212121212121212121212121212-----------------------------------|

SOLO
e|---------------------------------------------------------------------5-----|
B|^-^-------------------------------------------------------------8P6--------|
G|9-9-97-9999999910-9~--12-10-9H10-9H10P9P7H9~----67910P976------6---76-7679~|
D|---------------------------------------------578---------875578------------|
A|---------------------------------------------------------------------------|
D|---------------------------------------------------------------------------|
Not sure if this is write email me if you work it out!
e|T-------T-------TT-------TT-------T-------T-------TT-------TT--------------|
B|8/10P6P38/10P6P310/11P6P310/11P6P38/10P6P38/10P6P310/11P6P310/11P6P3~------|
G|---------------------------------------------------------------------------|
D|---------------------------------------------------------------------------|
A|---------------------------------------------------------------------------|
D|---------------------------------------------------------------------------|

e|---------------------------------------------------------------------------|
B|---------------------------------------------------------------------------|
G|---------------------------------------------------------------------------|
D|0-0-0-6-7-9--109-7--3-3-3-7-5--11---0-0-0-6-7-9--109-7--3-3-3-7-5--11------|
A|0-0-0-4-5-7--8-7-5--1-1-1-7-5--11---0-0-0-4-5-7--8-7-5--1-1-1-7-5--11------|
D|0-0-0---------------------7-5--11-3-0-0-0---------------------7-5--11-3----|
PM  .                   .               .                   .
e|---------------------------------------------------------------------------|
B|---------------------------------------------------------------------------|
G|---------------------------------------------------------------------------|
D|--0---0---0---0---0---0---7---6---0---0---0---0---0---0---7---6------------|
A|-0-0-0-0-0-0-0-0-0-0-0-0-0-0-0-0-0-0-0-0-0-0-0-0-0-0-0-0-0-0-0-0-----------|
D|3---3---2---2---0---0---0---0---3---3---2---2---0---0---0---0--------------|

e|---------------------------------------------------------------------------|
B|---------------------------------------------------------------------------|
G|---------------------------------------------------------------------------|
D|--0---0---0---0---0---0---7---6---0---0---0---0----------------------------|
A|-0-0-0-0-0-0-0-0-0-0-0-0-0-0-0-0-0-0-0-0-0-0-0-0---------------------------|
D|3---3---2---2---0---0---0---0---3---3---2---2---2--------------------------|



e|---------------------------------------------------------------------------|
B|---------------------------------------------------------------------------|
G|---------------------------------------------------------------------------|
D|---------------------------------------------------------------------------|
A|5555------------4444------------7777------------10101010-----13131313------|
D|----333333333333----222222222222----555555555555--------8888---------------|

e|---------------------------------------------------------------------------|
B|---------------------------------------------------------------------------|
G|---------------------------------------------------------------------------|
D|---------------------------------------------------------------------------|
A|--------5555------------4444-----------------------------------------------|
D|11111111----333333333333----222222222222--000-000-000-000-000-000-000-000--|
PM                                                                
e|---------------------------------------------------------------------------|
B|---------------------------------------------------------------------------|
G|---------------------------------------------------------------------------|
D|---------------------------------------------------------------------------|
A|5555------------4444------------7777------------10101010-----13131313------|
D|----333333333333----222222222222----555555555555--------8888---------------|



e|---------------------------------------------------------------------------|
B|---------------------------------------------------------------------------|
G|---------------------------------------------------------------------------|
D|---------------------------------------------------------------------------|
A|--------5555------------4444-----------------------------------------------|
D|11111111----333333333333----222222222222--000-000-000-000-000-000-17\------|
PM                                                             
e|---------------------------------------------------------------------------|
B|---------------------------------------------------------------------------|
G|---------------------------------------------------------------------------|
D|----------------------------------0-0--------------0-0---------------------|
A|5----------------4----------------0-0-444444444444-0-0-444444444444--------|
D|--3-333333333333---2-222222222222-0-0--------------0-0---------------------|
PM    . . . . . .      . . . . . .      . . . . . .      . . . . . . 
e|---------------------------------------------------------------------------|
B|---------------------------------------------------------------------------|
G|---------------------------------------------------------------------------|
D|----------------------------------0-0--------------0-0---------------------|
A|5----------------4----------------0-0-444444444444-0-0-444444444444--------|
D|--3-333333333333---2-222222222222-0-0--------------0-0---------------------|
PM    . . . . . .      . . . . . .      . . . . . .      . . . . . . 
e|---------------------------------------------------------------------------|
B|---------------------------------------------------------------------------|
G|---------------------------------------------------------------------------|
D|----------------------------------0-0--------------0-0---------------------|
A|5----------------4----------------0-0-444444444444-0-0-444444444444--------|
D|--3-333333333333---2-222222222222-0-0--------------0-0---------------------|
PM    . . . . . .      . . . . . .      . . . . . .      . . . . . . 
e|---------------------------------------------------------------------------|
B|---------------------------------------------------------------------------|
G|---------------------------------------------------------------------------|
D|----------------------------------0-0--------------0-0---------------------|
A|5----------------4----------------0-0-444444444444-0-0-444444444444--------|
D|--3-333333333333---2-222222222222-0-0--------------0-0------------------17\|
PM    . . . . . .      . . . . . .      . . . . . .      . . . . . . 








e|----------------------------------------------------------------------------|
B|----------------------------------------------------------------------------|
G|----------------------------------------------------------------------------|
D|0-0--------------0-0--------------0-0--------------0-0----------------------|
A|0-0-444444444444-0-0-444444444444-0-0-444444444444-0-0-444444444444---------|
D|0-0--------------0-0--------------0-0--------------0-0----------------------|
PM. . . . . . . .  . . . . . . . .  . . . . . . . .  . . . . . . . . 
e|----------------------------------------------------------------------------|
B|----------------------------------------------------------------------------|
G|----------------------------------------------------------------------------|
D|0-0-888888888888-0-0-888888888888-0-0-888888888888-0-0-888888888888--0------|
A|0-0--------------0-0--------------0-0--------------0-0---------------0------|
D|0-0--------------0-0--------------0-0--------------0-0---------------0------|
PM. . . . . . . .  . . . . . . . .  . . . . . . . .  . . . . . . . .   .



| /  slide up
| \  slide down
| h  hammer-on
| p  pull-off
| ~  vibrato
| +  harmonic
| x  Mute note
| T  Tapping


Related for Draining What Remains tab