Song name
# A B C D E F G H I J K L M N O P Q R S T U V W X Y Z

Vibrators - Automatic Lover tab

Automatic Lover by The Vibrators

Intro/Chorus
e--------------------------------------|
b---2-2-2-2--3--2----------------------|
g---2-2-2-2--2--2----1-1-1-1-1-1-1-1---| (listen to the song to hear repeats)
d---2-2-2-2--0--2----2-2-2-2-2-2-2-2---|
a---0-0-0-0-----0----2-2-2-2-2-2-2-2---|
e--------------------0-0-0-0-0-0-0-0---|

Verse
(P.M.)
e--------------------------------------|
b---2-2-2-2--3--2----------------------|
g---2-2-2-2--2--2----1-1-1-1-1-1-1-1---| (times 4)
d---2-2-2-2--0--2----2-2-2-2-2-2-2-2---|
a---0-0-0-0-----0----2-2-2-2-2-2-2-2---|
e--------------------0-0-0-0-0-0-0-0---|

Verse pt.2
("run for cover, run for cover...")
e-----------------------------------------------------------------------|
b-----------------------------------3-3-3-3-3-3-3-3---------------------|
g---6-6-6-6-6-6-6-6-6-6-6-6-6-6-6-6-2-2-2-2-2-2-2-2-1-1-1-1-1-1-1-1-1---|
d---6-6-6-6-6-6-6-6-6-6-6-6-6-6-6-6-0-0-0-0-0-0-0-0-2-2-2-2-2-2-2-2-2---|
a---4-4-4-4-4-4-4-4-4-4-4-4-4-4-4-4-----------------2-2-2-2-2-2-2-2-2---|
e---------------------------------------------------0-0-0-0-0-0-0-0-0---|

Here she comes she's crazy,
But she knows the scene.
She carries an automatic pistol,
But she ain't got no magazine

Run for cover, run for cover,
She's the kinda thing I was warned of by my mother

Well here I am,
Outta my brain.
Everything's comin',
Back round again.

Well there you are,
Movin' real real fast,
It's a long long night,
I don't think you're gonna last.

Automatic in her hand,
She wants to wear the pants.
There's something wrong here honey,
Won'tcha give me half a chance

You talk about,
This or that glory.
But me honey,
I'm a different story.

When you get mad,
An' start countin' up to ten,
I'm outta that door,
An' on the streets again.

I know its not perfect but there wasnt
any tabs on here so i thought id quickly tab it up.

Tabbed by Leroy Lupton
a48leroy@hotmail.com
www.myspace.com/a48leroy

xx
Tap to rate this tab
# A B C D E F G H I J K L M N O P Q R S T U V W X Y Z