Song name
# A B C D E F G H I J K L M N O P Q R S T U V W X Y Z

Vic Mignogna - Nothing I Wont Give tab

Note: Tab is in order of how the song is played... listen to the song and you 
should be able to figure it out with this...




E|----------------------------------------|x4  "slide down between each"
B|----------------------------------------|
G|----------------------------------------|
D|--12--12--12----12----12----12--12------|
A|--12--12--12----12----12----12--12------|        
E|--10--10--10----10----10----10--10------|        

E|---------------------------------|X1  
B|---------------------------------|
G|---------------------------------|
D|--10-10-10---10---10---10-10-----|                   
A|--10-10-10---10---10---10-10-----|
E|--8--8--8----8----8----8--8------|

E|------------------------------------|X1
B|------------------------------------|
G|------------------------------------|
D|--8--8--8----8----8----8--8--\------|
A|--8--8--8----8----8----8--8--\------|
E|--6--6--6----6----6----6--6--\------|

--------------------------------------------------------------------------------------------

E|-----------------------------------|---------------------------------------|X1
B|-----------------------------------|---------------------------------------|
G|-----------------------------------|---------------------------------------|
D|--/--12----12----12--12----12--12--|--8--8----8----8--8----7----/--12------|
A|--/--12----12----12--12----12--12--|--8--8----8----8--8----7----/--12------|
E|--/--10----10----10--10----10--10--|--6--6----6----6--6----5----/--10------|


E|-----------------------------------|-----------------------|x1
B|-----------------------------------|-----------------------|
G|-----------------------------------|-----------------------|
D|--/--12----12----12--12----12--12--|--5--5----10-\--7------|
A|--/--12----12----12--12----12--12--|--5--5----10-\--7------|
E|--/--10----10----10--10----10--10--|--3--3----8--\--5------|
 
 
E|-----------------------------------|---------------------------------------|X1
B|-----------------------------------|---------------------------------------|
G|-----------------------------------|---------------------------------------|
D|--/--12----12----12--12----12--12--|--8--8----8----8--8----7----/--12------|
A|--/--12----12----12--12----12--12--|--8--8----8----8--8----7----/--12------|
E|--/--10----10----10--10----10--10--|--6--6----6----6--6----5----/--10------|



E|-----------------------------------|---------------------------------------------
B|-----------------------------------|---------------------------------------------
G|-----------------------------------|---------------------------------------------
D|--/--12----12----12--12----12--12--|--5--5----10-\--7----8----8----8--8----8----7
A|--/--12----12----12--12----12--12--|--5--5----10-\--7----8----8----8--8----8----7
E|--/--10----10----10--10----10--10--|--3--3----8--\--5----6----6----6--6----6----5
 
 ------------------------------------|X1
 ------------------------------------|
 ------------------------------------|
 ---5--7--8--\--7--8--10-5----5------|
 ---5--7--8--\--7--8--10-5----5------|
 ---3--5--6--\--5--6--8--3----3------|

--------------------------------------------------------------------------------------------





E|----------------------------------------|x4  "slide down between each"
B|----------------------------------------|
G|----------------------------------------|
D|--12--12--12----12----12----12--12------|
A|--12--12--12----12----12----12--12------|        
E|--10--10--10----10----10----10--10------|        

E|---------------------------------|X1  
B|---------------------------------|
G|---------------------------------|
D|--10-10-10---10---10---10-10-----|                   
A|--10-10-10---10---10---10-10-----|
E|--8--8--8----8----8----8--8------|

E|------------------------------------|X1
B|------------------------------------|
G|------------------------------------|
D|--8--8--8----8----8----8--8--\------|
A|--8--8--8----8----8----8--8--\------|
E|--6--6--6----6----6----6--6--\------|



--------------------------------------------------------------------------------------------




E|-----------------------------------|---------------------------------------|X1
B|-----------------------------------|---------------------------------------|
G|-----------------------------------|---------------------------------------|
D|--/--12----12----12--12----12--12--|--8--8----8----8--8----7----/--12------|
A|--/--12----12----12--12----12--12--|--8--8----8----8--8----7----/--12------|
E|--/--10----10----10--10----10--10--|--6--6----6----6--6----5----/--10------|


E|-----------------------------------|-----------------------|x1
B|-----------------------------------|-----------------------|
G|-----------------------------------|-----------------------|
D|--/--12----12----12--12----12--12--|--5--5----10-\--7------|
A|--/--12----12----12--12----12--12--|--5--5----10-\--7------|
E|--/--10----10----10--10----10--10--|--3--3----8--\--5------|
 
 
E|-----------------------------------|---------------------------------------|X1
B|-----------------------------------|---------------------------------------|
G|-----------------------------------|---------------------------------------|
D|--/--12----12----12--12----12--12--|--8--8----8----8--8----7----/--12------|
A|--/--12----12----12--12----12--12--|--8--8----8----8--8----7----/--12------|
E|--/--10----10----10--10----10--10--|--6--6----6----6--6----5----/--10------|



E|-----------------------------------|---------------------------------------------|
B|-----------------------------------|---------------------------------------------|
G|-----------------------------------|---------------------------------------------|
D|--/--12----12----12--12----12--12--|--5--5----10-\--7----8----8----8--8----8----7|
A|--/--12----12----12--12----12--12--|--5--5----10-\--7----8----8----8--8----8----7|
E|--/--10----10----10--10----10--10--|--3--3----8--\--5----6----6----6--6----6----5|
 
 -----------------------------|x1
 -----------------------------|
 -----------------------------|
 ---5--7--8--\--7--/--12------|
 ---5--7--8--\--7--/--12------|
 ---3--5--6--\--5--/--10------|


--------------------------------------------------------------------------------------------



E|------------------------|x2
B|------------------------|
G|------------------------|
D|--12--12----10--10------|
A|--12--12----10--10------|
E|--10--10----8---8-------|

E|----------------------------------------------------------------------------------------|
B|----------------------------------------------------------------------------------------|
G|----------------------------------------------------------------------------------------|
D|--12--12--12----10-10---8--8--8----7--7----12--12--12----10-10-10---8--8--8----7--7--7-\|
A|--12--12--12----10-10---8--8--8----7--7----12--12--12----10-10-10---8--8--8----7--7--7-\|
E|--10--10--10----8--8----6--6--6----5--5----10--10--10----8--8--8----6--6--6----5--5--5-\|




--------------------------------------------------------------------------------------------





E|-----------------------------------|---------------------------------------|X1
B|-----------------------------------|---------------------------------------|
G|-----------------------------------|---------------------------------------|
D|--/--12----12----12--12----12--12--|--8--8----8----8--8----7----/--12------|
A|--/--12----12----12--12----12--12--|--8--8----8----8--8----7----/--12------|
E|--/--10----10----10--10----10--10--|--6--6----6----6--6----5----/--10------|


E|-----------------------------------|--------------------------|x1 "Pause at this slide for
B|-----------------------------------|--------------------------|    I PROMISE YOU! Break.."
G|-----------------------------------|--------------------------|
D|--/--12----12----12--12----12--12--|--5--5----10-\--7--/--12--|
A|--/--12----12----12--12----12--12--|--5--5----10-\--7--/--12--|
E|--/--10----10----10--10----10--10--|--3--3----8--\--5--/--10--|
 
 
E|-----------|---------------------------------------|X1
B|-----------|---------------------------------------|
G|-----------|---------------------------------------|
D|----12--\--|--8--8----8----8--8----7----/--12------|
A|----12--\--|--8--8----8----8--8----7----/--12------|
E|----10--\--|--6--6----6----6--6----5----/--10------|



E|-----------------------------------|---------------------------------------------|
B|-----------------------------------|---------------------------------------------|
G|-----------------------------------|---------------------------------------------|
D|--/--12----12----12--12----12--12--|--5--5----10-\--7----8----8----8--8----8----7|
A|--/--12----12----12--12----12--12--|--5--5----10-\--7----8----8----8--8----8----7|
E|--/--10----10----10--10----10--10--|--3--3----8--\--5----6----6----6--6----6----5|
 
 ------------------------------------|X1 "Hold last chord until "Again" is done"
 ------------------------------------|
 ------------------------------------|
 ---5--7--8--\--7--8----8--/--12-----|
 ---5--7--8--\--7--8----8--/--12-----|
 ---3--5--6--\--5--6----6--/--10-----|
Tap to rate this tab
# A B C D E F G H I J K L M N O P Q R S T U V W X Y Z