Vice Squad - Humane tab

Another Vice Squad tab to add to this library of tabs

Bass intro

e|--------------------|
B|--------------------|
G|--------------------|
D|----4---------------|X2
A|----4---------------|
E|----2---------------|


e|---------------------------------------------------------------------|
B|---------------------------------------------------------------------|
G|---------------------------------------------------------------------|
D|-7-7-7-7-7--10-10-10-10-10---5-5-5-5-5---3-3-3-3-3---2-2-2-2-2-------|X2
A|-7-7-7-7-7--10-10-10-10-10---5-5-5-5-5---3-3-3-3-3---2-2-2-2-2-------|
E|-5-5-5-5-5---8--8--8--8--8---3-3-3-3-3---1-1-1-1-1---0-0-0-0-0-------|
THEN YOU GO STRAIGHT TO THE NEXT PART

e|----------------------|
B|----------------------|
G|----------------------|
D|-7-7-7---7-8-9-10-----|
A|-7-7-7---7-8-9-10-----|
E|-5-5-5---5-6-7--8-----|

e|------------------------------|
B|------------------------------|
G|------------------------------|
D|-7-7-7-7-7-7------------------|X8
A|-7-7-7-7-7-7------------------|
E|-5-5-5-5-5-5------------------|

THEN YOU GO AGAIN FROM THE BEGINNING, NOT TOO HARD TO PLAY
LATER ON IN THE SONG YOU JUST THE NOTES RING
Tap to rate this tab
 
# A B C D E F G H I J K L M N O P Q R S T U V W X Y Z