Song name
# A B C D E F G H I J K L M N O P Q R S T U V W X Y Z

Vice Squad - Last Rockers tab

Help us improve GuitareTab! Take a short survey!
Last Rockers - Vice Squad

Intro
e|-------------------------------------------------|------------|-----|
b|-------------------------------------------------|------------|-----|
g|-------------------------------------------------|------------|-----|
d|-------------------------------------------------|--5---------|--7--|
a|--0--0--7--0--8b--0--0--7--0--8b--7--------[x3]--|--5--[x15]--|--7--|
E|-------------------------------------8--7--------|--3---------|--5--|

pm                                                    .

Verse
e|---------------------|---------------------------------|
b|---------------------|---------------------------------|
g|--7--------10--------|--7--------10--------8--------7--|
d|--7--------10--------|--7--------10--------8--------7--|
a|--5--[x6]---8--[x6]--|--5--[x6]---8--[x6]--6--[x6]--5--|
E|---------------------|---------------------------------|

Chorus
e|---------------------------------------|----------------------------------------|
b|---------------------------------------|----------------------------------------|
g|--7-------10---------------------------|--7--------10---------------------------|
d|--7-------10--------10--------9--------|--7--------10--------10--------9--------|
a|--5--[x6]--8--[x6]--10--[x6]--9--[x6]--|--5--[x6]---8--[x6]--10--[x6]--9--[x6]--|
E|---------------------8--------7--------|----------------------8--------7--------|

------------|
------------|
------------|
--5---------|
--5--[x24]--|
--3---------|

Outro
e|-----------------------------------|-----|---------------------------------------|
b|-----------------------------------|-----|---------------------------------------|
g|-----------------------------------|-----|---------------------------------------|
d|--0--0------------------------8----|--5--|---------------------------------------|
a|--------8--8h10--------------[x4]--|--5--|--0--7--0--8b--0--7--0--8--7--------0--|
E|-----------------8--8--7--7--------|--3--|------------------------------8--7-----|

------------|
------------|
------------|
------------|
--7--0--8b--|
------------|
Related for Last Rockers tab