Song name
# A B C D E F G H I J K L M N O P Q R S T U V W X Y Z

Vice Squad - Latex Love tab

----------------------------------------------------------------------------
                        LATEX LOVE - Vice Squad
----------------------------------------------------------------------------

This is the whole song except for the one part in the middle and the outro. 


e|--------------------------------------------------------------------------|
B|-(Intro & Chorus)---------------------------------------------------------|
G|--------------------------------------------------------------------------|
D|----9----8--(x2)----------------------------------------------------------|
A|----9----8----------------------------------------------------------------|
E|----7----6----------------------------------------------------------------|

e|--------------------------------------------------------------------------|
B|--------------------------------------------------------------------------|
G|--------------------------------------------------------------------------|
D|----9----8----6-----------------------------------------------------------|
A|----9----8----6-----------------------------------------------------------|
E|----7----6----4-----------------------------------------------------------|

e|--------------------------------------------------------------------------|
B|--(other bit)-------------------------------------------------------------|
G|--------------------------------------------------------------------------|
D|----4----6----------------------------------------------------------------|
A|----4----6----------------------------------------------------------------|
E|----2----4----------------------------------------------------------------|
VICE SQUAD ROCKS!!!! By:Emily
============================================================================
Tap to rate this tab
# A B C D E F G H I J K L M N O P Q R S T U V W X Y Z