Song name
# A B C D E F G H I J K L M N O P Q R S T U V W X Y Z

Vicente Fernandez - Me Voy A Quitar De En Medio chords

INTRO: LAmm Rem - RE7m SOLm - Rem - LA#M - LA7 - Rem

e|------5h4--5--4--5--6--5------------6--5-----------6--5-----------------|
B|---------------------------5-----5--------5-----5--------6--------------|
G|------------------------------6--------------6--------------7b----------|
D|------------------------------------------------------------------------|
A|------------------------------------------------------------------------|
E|------------------------------------------------------------------------|

e|--10p11h10--10--11--10--------------11--10----------11--10--------------|
B|-------------------------10------10---------10--------------11----------|
G|-----------------------------11-----------------11--------------12b-----|
D|------------------------------------------------------------------------|
A|------------------------------------------------------------------------|
E|------------------------------------------------------------------------|


          LA7
Si nuestro amor se acaba
                  REm
Si nuestro amor termina
                SOLm    DO7 
Ya no me queda nada
              FA 
Para vivir la vida
               SOLm   LA7
Si ya olvidaste todo
                  REm
También tus juramentos
             MI 
Y llenaste de lodo
               LA7
Mi mundo de recuerdos

No más por tu soberbia
             REm
No das explicaciones
               SOLm
Encima me condenas
DO7         FA 
Sin escuchar razones
               SOLm    LA7
Si terminar conmigo
                REm
Ya lo venías pensando
                MI      LA7
Déjame estar contigo
                      RE 
Aunque no esté a tu lado

(Ritmo de corrido)
                      LA       SOL 
Si me dejas no me olvides por favor
            RE 
Nunca me olvides
                    LA 
Tú sabes cuanto te quiero
                      RE 
Que desde siempre te quise
                      LA        SOL 
Si me dejas no me olvides por favor
             RE 
Nunca me olvides
                      LA 
Me voy a quitar de en medio
                               RE 
Qué más quieres...

que más piiiiiideeeeeesssss

e|------5h4--5--4--5--6--5------------6--5-----------6--5-----------------|
B|---------------------------5-----5--------5-----5--------6--------------|
G|------------------------------6--------------6--------------7b----------|
D|------------------------------------------------------------------------|
A|------------------------------------------------------------------------|
E|------------------------------------------------------------------------|

e|--10p11h10--10--11--10--------------11--10----------11--10--------------|
B|-------------------------10------10---------10--------------11----------|
G|-----------------------------11-----------------11--------------12b-----|
D|------------------------------------------------------------------------|
A|------------------------------------------------------------------------|
E|------------------------------------------------------------------------|

INTER: LAM - Rem - RE7 - SOLM - Rem - LA#M - LAM - Rem



No más por tu soberbia
             REm
No das explicaciones
               SOLm
Encima me condenas
DO7         FA 
Sin escuchar razones
               SOLm    LA7
Si terminar conmigo
                REm
Ya lo venías pensando
                MI      LA7
Déjame estar contigo
                      RE 
Aunque no esté a tu lado
                      LA       SOL 
Si me dejas no me olvides por favor
            RE 
Nunca me olvides
                    LA 
Tú sabes cuanto te quiero
                      RE 
Que desde siempre te quise
                      LA        SOL 
Si me dejas no me olvides por favor
             RE 
Nunca me olvides
                      LA 
Me voy a quitar de en medio
                               RE 
Qué más quieres , que máaaas piiideeeeeeess
Tap to rate this tab
# A B C D E F G H I J K L M N O P Q R S T U V W X Y Z