Song name
# A B C D E F G H I J K L M N O P Q R S T U V W X Y Z

Victim Effect - Provode tab

----------------------------------------------------------------------------
			     PROVODE - Victim Effect
----------------------------------------------------------------------------

Tabbed by: GoodApolloIV
Tuning: Drop D
***This song is obviously recorded with two guitars but I tabbed this version for one guitar :)

Intro/Verse
e|------------------------------------------------------------------------|
B|---------------------------------------------------------353-5-553-5-553|
G|-----------------------------------454-5-554-5-554-5-5545---------------|
D|-x-xxx-xxx-xxx-xx7-775-7-775-7-7757-------------------------------------|
A|-x-xxx-xxx-xxx-xx-------------------------------------------------------|
D|------------------------------------------------------------------------|

e|-------232--------------------------------------------------------------|
B|-5-5535---5-553-5-553---------------------------------------------------|
G|------------------------------------------------------------------------|
D|---------------------7\-2222222\-9-999-9-9-999-97-777-7-7-777-75-555-5-5|
A|---------------------7\-2222222\-7-777-7-7-777-75-555-5-5-555-53-333-3-3|
D|---------------------7\-2222222\-7-777-7-7-777-75-555-5-5-555-53-333-3-3|
                                   . ... . . ... .. ..  . . ..  .. ..  . .
e|------------------------------------------------------------------------|
B|----------------------------------------5--5----------------------------|
G|----------------------------------------7b-7b---------------------------|
D|-555-54-444-4-5-5-4-9-7-777-7-7-777-7-5------9-999-9-9-999-97-777-7-7---|
A|-333-32-222-2-3-3-2-7-5-555-5-5-555-5-3------7-777-7-7-777-75-555-5-5---|
D|-333-32-222-2-3-3-2-7-5-555-5-5-555-5-3------7-777-7-7-777-75-555-5-5---|
   ..  .. ..  .   .     . ..  . . ..  .        . ..  . . ..  .. ..  . .
e|------------------------------------------------------------------------|
B|------------------------------------------------------------------------|
G|------------------------------------------------------------------------|
D|-777-75-555-5-5-555-54-444-4-5-5-4-4-9-999-9-9-999-97-777-7-7-777-75----|
A|-555-53-333-3-3-333-32-222-2-3-3-2-4-7-777-7-7-777-75-555-5-5-555-53----|
D|-555-53-333-3-3-333-32-222-2-3-3-2-2-7-777-7-7-777-75-555-5-5-555-53----|
   ..  .. ..  . . ..  .. ..  .   .   . . ..  . . ..  .. ..  . . ..  .

Chorus
e|------------------------------------------------------------------------|
B|------------------5-----------------5-------------------5---------------|
G|------------------7b------------(5)-7b------------------7b--------------|
D|-777777777-7---------555555555-5--(5)--333333333-3---------222222222----|
A|-777777777-7---(7)---555555555-5-------333333333-3---(3)---222222222----|
D|-777777777-7-(7)-----555555555-5-------333333333-3-(3)-----222222222----|
   .........           .........         .........           .........
e|------------------------------------------------------------------------|
B|----------------------------5------------------5---------------5--------|
G|----------------------------7b--------------(5)7b--------------7b-------|
D|-020-232-0-777777777-7---(7)--555555555-5-(5)-----333333333-3-x---------|
A|-020-232-0-777777777-7-(7)----555555555-5---------333333333-3-x---------|
D|-020-232-0-777777777-7--------555555555-5---------333333333-3-x---------|
   ... ... . .........          .........           .........
e|-----------------------------------------------------------------------|
B|---------------------------------------(7)----------------5------------|
G|-------------------------------------------------------(5)7b-----------|
D|-222222222-2-020-232-0-777777777-7---(7)-555555555-5-(5)----333333333-3|
A|-222222222-2-020-232-0-777777777-7-(7)---555555555-5--------333333333-3|
D|-222222222-2-020-232-0-777777777-7-------555555555-5--------333333333-3|
   .........   ... ... . .........         .........          .........
e|---------------------------|
B|--5------------------------|
G|--7b-----------------------|
D|-x--222222222-020-232-0----|
A|-x--222222222-020-232-0----|
D|-x--222222222-020-232-0----|
      ......... ... ... .

Go back and play (Intro/Verse) and (Chorus)

Breakdown/Solo
e|-17---------------------------------------------------------------------|
B|--18--------------------------------------------------------------------|
G|---17\------------------------------------------------------------------|
D|-------77-8p7-0-5h7-0-8p7-0-7p5-0-5h7-55-7p5-0-8p7-0-7p5-0-5h7-0-7p5----|
A|-------77-----------------------------55--------------------------------|
D|-------77-----------------------------55--------------------------------|

e|------------------------------------------------------------------------|
B|------------------------------------------------------------------------|
G|------------------------------------------------------------------------|
D|-33-5p3-0-10p8-0-5p3-0-3h5-0-5p3-22-3p2-0-8p7-0-2h3-0-5p3-0-------------|
A|-33------------------------------22-------------------------------------|
D|-33------------------------------22-------------------------------------|

e|--------------------------------|
B|--------------------------------|
G|--------------------------------|This is what the lead guitar plays
D|-9h10-12p10-9h10-12p10-9h10p9---|on the second time around
A|--------------------------------|
D|--------------------------------|

e|---------------------------|----------------------------|------|--------|
B|---------------------------|----------------------------|------|--------|
G|---------------------------|----------------------------|------|--------|
D|-77-55-33-22---77-55-33-22-|-7------5------3------2-----|-(x2)-|---77---|
A|-77-55-33-22---77-55-33-22-|-7(x16)-5(x16)-3(x16)-2(x16)|------|---77---|
D|-77-55-33-22---77-55-33-22-|-7------5------3------2-----|------|---77---|
   

| /  slide up
| \  slide down
| h  hammer-on
| p  pull-off
| ()  natural harmonic
| x  Mute note
============================================================================
Tap to rate this tab
# A B C D E F G H I J K L M N O P Q R S T U V W X Y Z