Song name
# A B C D E F G H I J K L M N O P Q R S T U V W X Y Z

Victim Effect - Go Fight tab

     -----------------------------------------------------------------------
                             GO! FIGHT!  Victim Effect
     -----------------------------------------------------------------------
Tabbed by: almosthuman36

Tuning: Drop D 	(DADGBE)

Intro: x6
e|--------------------------------------------------------------------|
B|--------------------------------------------------------------------|
G|--------9b-9b-9b--------------9b-9b-9b------------------------------|
D|-2-0-2---------------0-2-0-2----------------------------------------|
A|-2-0-2---------------0-2-0-2----------------------------------------|
D|-2-0-2---------------0-2-0-2----------------------------------------|

Every third time play this:
e|--------------------------------------------------------------------|
B|--------------------------------------------------------------------|
G|--------9b----------------------------------------------------------|
D|-2-0-2----------0-2-0-2--5--5-5-5-----------------------------------|
A|-2-0-2----------0-2-0-2--5--5-5-5-----------------------------------|
D|-2-0-2----------0-2-0-2--5--5-5-5-----------------------------------|

Bridge:
e|---------------------|
B|---------------------|
G|---------------------|
D|-2-0-2--2--0-2-0-2---|
A|-2-0-2--2--0-2-0-2---|
E|-2-0-2--2--0-2-0-2---|

Verse:
Riff 1 x8                            Fourth and Sixth time play this
e|----------------------------------|---------------------------------|
B|----------------------------------|---------------------------------|
G|----------------------------------|---------------------------------|
D|-0--0-2-0--0---9----0--0-2-0---10-|--0--0--0--0--0--0---------------|
A|-0--0-2-0--0--------0--0-2-0------|--0--0--0--0--0--0---------------|
E|-0--0-2-0--0--------0--0-2-0------|--0--0--0--0--0--0---------------|

Riff 2 x2
e|--------------------------------------------------------------------|
B|--------------------------------------------------------------------|
G|--------------------------------------------------------------------|
D|-0-0-0--9---0-0-0--10---0-0-0-10p9---0-0-09h10p9------------------|
A|-0-0-0------0-0-0-------0-0-0---------0-0-0-------------------------|
E|-0-0-0------0-0-0-------0-0-0---------0-0-0-------------------------|

Riff 3 x4
e|--------------------------------------------------------------------|
B|--------------------------------------------------------------------|
G|--------------------------------------------------------------------|
D|-0-0-0------0-0-0-------0-0-0--------0-0-0------------------------|
A|-0-0-0------0-0-0-------0-0-0---------0-0-0-------------------------|
E|-0-0-0------0-0-0-------0-0-0---------0-0-0-------------------------|

2nd Bridge
e|---------------------------------------|
B|---------------------------------------|
G|---------------------------------------|
D|--9-----------------12-----------------|
A|--9-let-ring--------12-let-ring--------|
E|--9-----------------12-----------------|

Chorus: x6
e|--------------------------------------------------------------------|
B|--------------------------------------------------------------------|
G|--------9b-9b-9b--------------9b-9b-9b------------------------------|
D|-2-0-2---------------0-2-0-2----------------------------------------|
A|-2-0-2---------------0-2-0-2----------------------------------------|
D|-2-0-2---------------0-2-0-2----------------------------------------|

Every third time play this:
e|--------------------------------------------------------------------|
B|--------------------------------------------------------------------|
G|--------9b----------------------------------------------------------|
D|-2-0-2----------0-2-0-2--5--5-5-5-----------------------------------|
A|-2-0-2----------0-2-0-2--5--5-5-5-----------------------------------|
D|-2-0-2----------0-2-0-2--5--5-5-5-----------------------------------|

Bridge:
e|---------------------|
B|---------------------|
G|---------------------|
D|-2-0-2--2--0-2-0-2---|
A|-2-0-2--2--0-2-0-2---|
E|-2-0-2--2--0-2-0-2---|

Verse:
Riff 1 x8                            Fourth and Sixth time play this
e|----------------------------------|---------------------------------|
B|----------------------------------|---------------------------------|
G|----------------------------------|---------------------------------|
D|-0--0-2-0--0---9----0--0-2-0---10-|--0--0--0--0--0--0---------------|
A|-0--0-2-0--0--------0--0-2-0------|--0--0--0--0--0--0---------------|
E|-0--0-2-0--0--------0--0-2-0------|--0--0--0--0--0--0---------------|

Riff 2 x2
e|--------------------------------------------------------------------|
B|--------------------------------------------------------------------|
G|--------------------------------------------------------------------|
D|-0-0-0--9---0-0-0--10---0-0-0-10p9---0-0-09h10p9------------------|
A|-0-0-0------0-0-0-------0-0-0---------0-0-0-------------------------|
E|-0-0-0------0-0-0-------0-0-0---------0-0-0-------------------------|

Riff 3 x4
e|--------------------------------------------------------------------|
B|--------------------------------------------------------------------|
G|--------------------------------------------------------------------|
D|-0-0-0------0-0-0-------0-0-0--------0-0-0------------------------|
A|-0-0-0------0-0-0-------0-0-0---------0-0-0-------------------------|
E|-0-0-0------0-0-0-------0-0-0---------0-0-0-------------------------|

2nd Bridge
e|---------------------------------------|
B|---------------------------------------|
G|---------------------------------------|
D|--9-----------------12-----------------|
A|--9-let-ring--------12-let-ring--------|
E|--9-----------------12-----------------|

Chorus: x6
e|--------------------------------------------------------------------|
B|--------------------------------------------------------------------|
G|--------9b-9b-9b--------------9b-9b-9b------------------------------|
D|-2-0-2---------------0-2-0-2----------------------------------------|
A|-2-0-2---------------0-2-0-2----------------------------------------|
D|-2-0-2---------------0-2-0-2----------------------------------------|

Every third time play this:
e|--------------------------------------------------------------------|
B|--------------------------------------------------------------------|
G|--------9b----------------------------------------------------------|
D|-2-0-2----------0-2-0-2--5--5-5-5-----------------------------------|
A|-2-0-2----------0-2-0-2--5--5-5-5-----------------------------------|
D|-2-0-2----------0-2-0-2--5--5-5-5-----------------------------------|

End with:
e|---------------------|
B|---------------------|
G|---------------------|
D|-2-0-2--2--0-2-0-2---|
A|-2-0-2--2--0-2-0-2---|
E|-2-0-2--2--0-2-0-2---|

| b  bend
| /  slide up
| \  slide down
| h  hammer-on
| p  pull-off
| ~  vibrato
| +  harmonic
| x  Mute note
Tap to rate this tab
# A B C D E F G H I J K L M N O P Q R S T U V W X Y Z