Song name
# A B C D E F G H I J K L M N O P Q R S T U V W X Y Z

Victimas Del Doctor Cerebro - Ya Tus Amigos tab

-------------------------------------------------------------------------------
			     Ya tus amigos - Victimas del dr. cerebro
-------------------------------------------------------------------------------
Tabbed by: Antonio García Canales
Email: tonogc@hotmail.com	

Tuning: Standard

h - hammer on
p - pull off
b - bend
r - release
~ - vibrato
. - palm mute

---
Primera parte
e|---------------------------------------------------------------------------|
B|---------------------------------5h6p5-------------------------------------|
G|-------5-----------7----------5---------5/3/5/0----------------------------|
D|-7--9-------9--10-------7--9-----------------------------------------------|
A|---------------------------------------------------------------------------|
E|---------------------------------------------------------------------------|
   .  .  .    .   .  .    .  .  .
e|---------------------------------------------------------------------------|
B|---------------------------------6p5h6p5h6p5h6p5h6p5h6---------------------|
G|-------5-----------7----------5--------------------------------------------|
D|-7--9-------9--10-------7--9-----------------------------------------------|
A|---------------------------------------------------------------------------|
E|---------------------------------------------------------------------------|
   .  .  .    .   .  .    .  .  .
---


---
Segunda parte

En esta parte no necesitas estirar los dedos hasta el doceavo traste, simplemente con que dejes el dedo 

haciendo el bend en el decimo traste y tocando la nota conseguiras el sonido

e|---------------------------------------------------------------------------|
B|-8------8--8---8------8--8---8------8----8------8--8---8------8--8---------|
G|-10b12--12-12--10b12--12-12--10b12--12---10b12--12-12--10b12--12-12--------|
D|---------------------------------------------------------------------------|
A|---------------------------------------------------------------------------|
E|---------------------------------------------------------------------------|

e|---------------------------------------------------------------------------|
B|-8------8----8------8--8----8------8--8----8------8----8------8--8---------|
G|-10b12--12---10b12--12-12---10b12--12-12---10b12--12---10b12--12-12--------|
D|---------------------------------------------------------------------------|
A|---------------------------------------------------------------------------|
E|---------------------------------------------------------------------------|

e|---------------------------------------------------------------------------|
B|-8------8--8---8-----------------------------------------------------------|
G|-10b12--12-12--12r10-------------------------------------------------------|
D|---------------------------------------------------------------------------|
A|---------------------------------------------------------------------------|
E|---------------------------------------------------------------------------|
---


---
Fin del solo

e|---------------------------------------------------------------------------|
B|-11--8------8----11--8------8----11--8------8----11--8------8--------------|
G|--------10--------------10--------------10--------------10-----------------|
D|---------------------------------------------------------------------------|
A|---------------------------------------------------------------------------|
E|---------------------------------------------------------------------------|

e|---------------------------------------------------------------------------|
B|-11--8------8----11--8------8----11--8------8----11--8------8--------------|
G|--------10--------------10--------------10--------------10-----------------|
D|---------------------------------------------------------------------------|
A|---------------------------------------------------------------------------|
E|---------------------------------------------------------------------------|

e|---------------------------------------------------------------------------|
B|-11--8------8----11--8------8----11--8------8----11--8------8--------------|
G|--------10--------------10--------------10--------------10-----------------|
D|---------------------------------------------------------------------------|
A|---------------------------------------------------------------------------|
E|---------------------------------------------------------------------------|

e|--11b13r11--13-13b16~~~~------|
B|------------------------------|
G|------------------------------|
D|------------------------------|
A|------------------------------|
E|------------------------------|
---

Y ya ahi se acaba. Saludos a todos los dl anglo xd ya saben kienes...

MIGUEL PANDER
Tap to rate this tab
# A B C D E F G H I J K L M N O P Q R S T U V W X Y Z