Song name
# A B C D E F G H I J K L M N O P Q R S T U V W X Y Z

Victimas Del Dr Cerebro - El Esqueleto tab

INTRO *****


e---------------5-7------------8-7-5---5---------7-5-------------|
b-5~~~--0-5-7-8--------------5-------8---------5-----8-7-8-------|
g----------------------------------------------------------------|   X 2
D----------------------------------------------------------------|
A----------------------------------------------------------------|
E----------------------------------------------------------------|

e---12-10----------------------------------|
b---------12-10-----8h10h12----------------|
g---------------12-------------------------|
D------------------------------------------|
A------------------------------------------|
E------------------------------------------|

SOLOS***


e-----12-10--------12-10---------------------------------------15-12-------|
b-----------12-----------12-10------------10-12-12-12-12-12-12-------12----|
g--9------------9----------------------12----------------------------------|
D--------------------------------------------------------------------------|
A--------------------------------------------------------------------------|
E--------------------------------------------------------------------------|

Ráspete esa tibia.

e-------12-10--------------------------15-12-10----------------------------|
b-------------12-10----10^~^~^~-----------------12-10----10^-10------------|
g--9-12-------------12-----------12-12----------------12--------12-9-------|
D--------------------------------------------------------------------------|
A--------------------------------------------------------------------------|
E--------------------------------------------------------------------------|

e-----12-10--------12-10--------  -------10^^-10---------------------------|
b-----------12-----------12-----  ----12---------12-10----10-10^~^-10------|
g--9------------9---------------  ---------------------12-------------12-9-|
D-------------------------------  -----------------------------------------|
A-------------------------------  -----------------------------------------|
E-------------------------------  -----------------------------------------|

e---------------------------------11/12-  ----------------12---15^^^^-15---|
b-------------------8h10h12-10h12-------  -------------10------------------|
g--9h11h12-11h12h14---------------------  -9----9-12-----------------------|
D---------------------------------------  ---12----------------------------|
A---------------------------------------  ---------------------------------|
E---------------------------------------  ---------------------------------|
Tap to rate this tab
 
# A B C D E F G H I J K L M N O P Q R S T U V W X Y Z