Guitaretab - guitar tabs
Song name
# A B C D E F G H I J K L M N O P Q R S T U V W X Y Z

Victor And Leo - Recuerdos De Amor tab

hola aqui esta ya la cansion, esta bien facil el rasgueo es: abajo abajo arriba arriba 
arriba abajo. es el mismo rasgueo durante toda la cansion suerte:)
INTRO:
                     D                           Bm
e--3/5-5------------------3/5-5----------------------|
B--------7-7-5-5-3-5/7---------7-7-5-----3-3/5--3----|
G------------------------------------2/4----------4--|
D----------------------------------------------------|
A----------------------------------------------------|
E----------------------------------------------------|

                   G                 Bm
e--------------------------------------------------------|
B--3-3------------------3-3------------------------------|
G------4-4-2-2--------------4-4-2-2---2/4-------2-4-4/6--|
D--------------4-4/7----------------4---------4----------|
A--------------------------------------------------------|
E--------------------------------------------------------|

Bm
Tienes razón
 G
Que las palabras no resuelven muchas cosas
            D
Pero es lo mejor
        A
Debemos conversar

Bm
Al final   e-------5/7-|
           B-----3-----|
           G---4-------|
 G
Nuestro caso no es distinto de otros casos

            D    e--------------|
Que acabaron mal B-------7------|
                 G--7777---7----|
                 D------------7-|
          A
Y debo confesar

            G
Que aunque sufrido ya  e---5-----|
                       B--3---3--|
                       G---------|

                   A
Las noches que no estés  e---5-----|
                         B--2---2--|
                         G---------|

            D                A               D
Sufriré aún máaaaaaas        ahh.....!!!
         e--------------------------------------|
         B----7---7---7---7----5---5---5---5----|
         G--7---7---7---7----6---6---6---6---7--|

                                    Em
Necesito urgente que tú sepas de mis sentimientos
         A
Llego a casa no te veo
                        Bm
Y tengo ganas de salir corriendo
D                                       Em
Siento que la soledad y el silencio me abrazan
     G
Mi alegría pasó
          A
Solo el recuerdo de amor
  Bm
No pasa.


                     D                     Bm
e--3/5-5------------------3/5-5----------------------|
B--------7-7-5-5-3-5/7---------7-7-5-----3-3/5--3----|
G------------------------------------2/4----------4--|
D----------------------------------------------------|
A----------------------------------------------------|
E----------------------------------------------------|
[ Tab from: http://www.guitaretab.com/v/victor-and-leo/190066.html ]
                   G            A                Bm
e------------------------------------------------------------------|
B--3-3-----------------------------3-3-----------------------------|
G------4-4-2-2------------2-2/4-2------4-4-2-2------------2-4-4/6--|
D--------------4-4/5--4/5----------------------2-2/4----4----------|
A------------------------------------------------------------------|
E------------------------------------------------------------------|

Bm
Al final   e-------7-5--3--|
           B---5/7---------|
           G---------------|
  G
Nuestro caso no es distinto de otros casos

            D    e--------------|
Que acabaron mal B-------7------|
                 G--7777---7----|
                 D------------7-|
          A
Y debo confesar

            G
Que aunque sufrido ya  e---5-----|
                       B--3---3--|
                       G---------|

                   A
Las noches que no estés  e---5-----|
                         B--2---2--|
                         G---------|

            D                A               D
Sufriré aún máaaaaaas        ahh.....!!!
         e--------------------------------------|
         B----7---7---7---7----5---5---5---5----|
         G--7---7---7---7----6---6---6---6---7--|


                                     Em
Necesito urgente que tú sepas de mis sentimientos
         A
Llego a casa no te veo
                        Bm
Y tengo ganas de salir corriendo
                      e--5/7-5-----------------------|
                      B----------8-7---5-------------|
                      G--------7---------7-6-6/7-----|
D                                       Em
Siento que la soledad y el silencio me abrazan
     G
Mi alegría pasó
          A
Solo el recuerdo de amor
  Bm
No pasa.

D                                    Em
Necesito urgente que tú sepas de mis sentimientos
                                      e------------------|
                                      B--5-----5---------|
                                      G----7------7------|
                                      D------9------9----|
A
Llego a casa no te veo
                        Bm
Y tengo ganas de salir corriendo


D                                       Em
Siento que la soledad y el silencio me abrazan
                                         e------------------|
                                         B--5-----5---------|
                                         G----7------7------|
                                         D------9------9----|
     G
Mi alegría pasó
          A
Solo el recuerdo de amor
  Bm
No pasa.
    e--------------------------------|
    B-------------------------2-2/3--|
    G-----2-------------2-2/4--------|
    D-------4-------2/4--------------|
    A-2-5-------2/4------------------|

   G
Mi alegría pasó
          A
Solo el recuerdo de amor

No pasa.

e---2----2-2--2---2----2-2--2-------2--|
B---2/3--3-3--2---2/3--3-3--2------3---|
G---4----4-4--4---4----4-4--4-----4----|
D---4----4-4--4---4----4-4--4----4-----|
A---2----2-2--2---2----2-2--2---2------|
E---2----2-2--2---2----2-2--2--2-------|
Related for Recuerdos De Amor tab
Advertisement will be closed in 10 seconds