Song name
# A B C D E F G H I J K L M N O P Q R S T U V W X Y Z

Victor Deme - Djon Maya tab

Victor Deme - Djon Maya
tabbed by Tyte Flamme.
Super-Easy !!!

Please ask for copy and don't forget to mention who tabbed it.


Chords :

Abm Ebm Abm Ebm
Abm Ebm Abm Ebm
Db B Ebm
Db B Ebm

Solo :

e ||---------------|-------------|------9-------------|---------------|
B ||--9/11-9p7h9---|----7-9/11-9-|-9/11---9h11p9-7----|----7-9/11-9---|
G ||-------------8-|-/8----------|-----------------8~-|-/8------------| 
D ||---------------|-------------|--------------------|---------------|
A ||---------------|-------------|--------------------|---------------|
E ||---------------|-------------|--------------------|---------------|
Abm            Ebm           Abm                 Ebm            Abm ...


e |---------------|-------------|------9-------------|
B |--9/11-9p7h9---|----7-9/11-9-|-9/11---9h11p9-7----|
G |-------------8-|-/8----------|-----------------8~-| 
D |---------------|-------------|--------------------|
A |---------------|-------------|--------------------|
E |---------------|-------------|--------------------|
(...Abm)        Ebm           Abm                 Ebm...     


e |----------------|---------|------------||
B |--/7-6-----6~-6-|----6-7~-|------------||
G |-------8-6------|-/8------|-8~-8-6-8~--||
D |----------------|---------|------------|| x2
A |----------------|---------|------------||
E |----------------|---------|------------||
(...Ebm)         Db       B           Ebm



Tap to rate this tab
 
# A B C D E F G H I J K L M N O P Q R S T U V W X Y Z