Victoria Justice - Beggin On Your Knees tab

I love this song, so I decided to learn it. I learned it by ear, so there probably 
are parts that could use improvement.

Intro/Verses:

Gtr I
e|-13--17------------------12--13-----------------------|
B|----------13--15-15-15------------13--13-15-1515------|
G|------------------------------------------------------|
D|------------------------------------------------------|
A|------------------------------------------------------|
D|------------------------------------------------------|

Gtr II
e|------------------------------------------------------|
B|------------------------------------------------------|
G|------------------------------------------------------|
D|------------------------------------------------------|
A|-8---12---3---5--5--5----7---8----3---3--5--5-5-------|
D|------------------------------------------------------|

Chorus:

Both Gtrs
e|-----------------------------------------------------------------|
B|-----------------------------------------------------------------|
G|-------7-7-7---------------------7-7-7-101010--------------------|
D|-8-8-8-7-7-7-7-7-8-8-8-8-8-8-8-8-7-7-7-1010107-7-8-8-8-8-8-8-8-8-|
A|-8-8-8-5-5-5-7-7-8-8-8-8-8-8-8-8-5-5-5-8-8-8-7-7-8-8-8-8-8-8-8-8-|
D|-8-8-8-------7-7-8-8-8-8-8-8-8-8-------------7-7-8-8-8-8-8-8-8-8-|

Repeat Verse
Repeat Chorus

Breakdown:

Both Gtrs
e|--------------------------------------------------|
B|--------------------------------------------------|
G|---------7--------------------7-------------------|
D|-10------7(x8)-8------10------7(x8)-8------10-----|
A|-10(x16)-5-----8(x8)--10(x16)-5-----8(x20)-10(x4)-|
D|-10------------8------10------------8------10-----|

Repeat Verse riff
Repeat Chorus

Outro:

Gtr I
e|-13--17-----------------------------------------------|
B|----------13--15-15\\---------------------------------|
G|------------------------------------------------------|
D|------------------------------------------------------|
A|------------------------------------------------------|
D|------------------------------------------------------|

Gtr I
e|------------------------------------------------------|
B|------------------------------------------------------|
G|------------------------------------------------------|
D|------------------------------------------------------|
A|-8---12---3---5--5\\----------------------------------|
D|------------------------------------------------------|
Tap to rate this tab
 
# A B C D E F G H I J K L M N O P Q R S T U V W X Y Z