Song name
# A B C D E F G H I J K L M N O P Q R S T U V W X Y Z

Victoria - To Be Near You tab

e---------------------------------------------------|
B-3--5--7-------------------------------------------|
G-2--4--7---5-----------7--9------------------------|
D-------------5-5/7-3-5-----------------------------|
A---------------------------------------------------|
E---------------------------------------------------|

e---------------------------------------------------|
B----7---8---3----------5--6--5---3-----------------|
G----7---8---3----------5--6--5---3-----------------|
D---------------------------------------------------|
A---------------------------------------------------|
E---------------------------------------------------|
repeat..

un lang po..

astig..


tabbed by raffy ronquillo
questions?

msg nlng ko sa frenster :p
Tap to rate this tab
# A B C D E F G H I J K L M N O P Q R S T U V W X Y Z