Song name
# A B C D E F G H I J K L M N O P Q R S T U V W X Y Z

Victory Sweet Victory - Sun The Stars tab

                                          VICTORY, SWEET VICTORY!
                                                SUN & THE STARS

http://www.facebook.com/victorysweetvictory

(SYMBOL LEGEND)
 * -Palm Mute
 ~ -Ring out
 /  - Slide

Intro: (clean lead w/ synth)
e |-555-000-000-777-000-000----|
b |-777-777-777-777-777-777----|
g |-777-777-777-777-777-777----|
d |----------------------------|
a |----------------------------|
d |----------------------------|


e |-555-000-000-777-5~ --------|
b |-777-777-777-777-7~---------|
g |-777-777-777-777-7~ --------|
d |---------------------0~~~~~-|
a |---------------------0~~~~~-|
d |---------------------0~~~~~-|

(RYTHYM GUITAR - with lead)
e |----------------------000-00-|
b |----------------------000-00-|
g |----77----------------999-99-|
d |-55-550-00-00-7777-77-777-77-|
a |-55-550-00-00-7777-77-999-99-|
d |-55-550-00-00-7777-77-xxx-xx-|


(LEAD GUITAR)
e |--------------------------|
b |--------------------------|
g |-141414-11-9-7777---------|
d |--------------------------|
a |-121212-9--7-5555---------|
d |--------------------------|

(RYTHYM GUITAR)
e |------------------------|
b |------------------------|
g |-7-777-777--------------|
d |-5-555-555---0-0-0~~~~~-|
a |-5-555-555---0-0-0~~~~~-|
d |-5-555-555---0-0-0~~~~~-|

(LEAD GUITAR)
e |-----------------------------------|
b |-----------------------------------|
g |-141414-11-9-797-777-9-11- 7~~~----|
d |---------------------------- ~~~~~-|
a |-121212-9--7-575-555-7--9-5 ~~~~---|
d |-----------------------------------|


VERSE #1
*palm mute
(RYTHM GUITAR)
e |--------------------------------------------------|
b |--------------------------------------------------|
g |--------------------------------------------------|
d |-777-9999-121212121212121212121212----------------|
a |-777-9999-121212121212121212121212----------------|               (X's 2)
d |-777-9999-121212121212121212121212----------------|
      ***    *****  *******************************
(LEAD GUITAR)

e |------------------------------------------------------------|
b |------------------------------------------------------------|
g |---------------------------------14-------14-14----14/16/14-|
d |-777-9999-1212121212121212121212------14--------------------|
a |-777-9999-1212121212121212121212----------------------------|
d |-777-9999-1212121212121212121212---12 --12 -----12----------|
      ***    *****  *******************************
e |-------------------------------|
b |-------------------------------|
g |-------------------------------|
d |-777555500~~  -----------------|            (X's 2)
a |-777555500~~  -----------------|
d |-777555500~~  -----------------|


PRE-CHORUS

 ( X's 2)
e |-----------------------|
b |-----------------------|
g |-----------------------|
d |-777-9999-5555-555-555-|
a |-777-9999-5555-555-555-|
d |-777-9999-5555-555-555-|


e |------------------------|
b |------------------------|
g |------------------------|
d |-77-99-12-555-555-555-5-|
a |-77-99-12-555-555-555-5-|
d |-77-99-12-555-555-555-5-|
                          **     **     **
CHORUS

(x's 2)
e |-----------------------------|
b |-----------------------------|
g |----------------------999999-|
d |-55-55-0-00-00-7777-7777777--|
a |-55-55-0-00-00-7777-7799999--|
d |-55-55-0-00-00-7777-77-------|

e |------------------------------|
b |------------------------------|
g |-----------------------999999-|
d |-555555-00000000-------777777-|
a |-555555-00000000-------999999-|
d |-555555-00000000-777777-------|

e |---------------------|
b |---------------------|
g |-7-777-777-----------|   (PLAY ONCE, LAST TIME)
d |-5-555-555---0-0-0~~-|
a |-5-555-555---0-0-0~~-|
d |-5-555-555---0-0-0~~-|


VERSE #2
*palm mute
e |-------------------------------------------------------|
b |-------------------------------------------------------|
g |-------------------------------------------------------|
d |-777-9999-121212121212121212121212 --------------------|                )
a |-777-9999-121212121212121212121212  ( 12---------------| x's 2 )
d |-777-9999-121212121212121212121212 --------------------|                 )
      ***    *****  *******************************

PRE-CHORUS

e |-----------------------|
b |-----------------------|
g |-----------------------|
d |-777999-99-555-555-555-|
a |-777999-99-555-555-555-|
d |-777999-99-555-555-555-|
                           **     **     **
e |------------------------|
b |------------------------|
g |------------------------|
d |-77-99-12-555-555-555-5-|
a |-77-99-12-555-555-555-5-|
d |-77-99-12-555-555-555-5-|


****PLAY CHORUS AGAIN****
           

e |----------|
b |----------|
g |--14------|
d |----(SLIDE)-
a |--12------|
d |----------|

(INTRO- LEAD GUITAR)
e |-55-00-77-55-5-5----55-00-77-00-0-0---|
b |-77-77-77-77-7-7----77-77-77-77-7-7---|
g |-77-77-77-77-7-7----77-77-77-77-7-7---|
d |--------------------------------------|
a |--------------------------------------|
d |--------------------------------------|

(RYTHM GUITAR)

e |--------------------------------------|
b |--------------------------------------|
g |------------------77------------------|
d |-55-77-00-00-0-0-77-99-77-77-7-9------|
a |-55-77-00-00-0-0-55-99-77-77-7-9------|
d |-55-77-00-00-0-0----99-77-77-7-9------|

(LEAD GUITAR)
e |-----------------------------------------------------------|
b |-10-12-10---------------10-12-10---------------------------|
g |----------11-9-------------------11-9----------11- 11-14~~-|
d |---------------12~~ -------------------12-12/14------------|
a |-----------------------------------------------------------|
d |-----------------------------------------------------------|

(RYTHM
e |----------------------------------------------|
b |----------------------------------------------|
g |--------------777-----------------------------|
d |-555777000000-77799977777799---------5-7-0~~--|
a |-555777000000-55599977777799---------5 -7-0~~-|
d |-555777000000----99977777799---------5-7-0~~--|

CHORUS

(x's 2)
e |-----------------------------|
b |-----------------------------|
g |----------------------999999-|
d |-55-55-0-00-00-7777-7777777--|
a |-55-55-0-00-00-7777-7799999--|
d |-55-55-0-00-00-7777-77-------|

e |------------------------------|
b |------------------------------|
g |-----------------------999999-|
d |-555555-00000000-------777777-|
a |-555555-00000000-------999999-|

e |---------------------|
b |---------------------|
g |-7-777-777-----------|   (PLAY ONCE, LAST TIME)
d |-5-555-555---0-0-0~~-|
a |-5-555-555---0-0-0~~-|
d |-5-555-555---0-0-0~~-|


e |----------------------------------------|
b |----------------------------------------|
g |----------------------------------------|
d |-555~~~~ --000~~~~ ---------------------|
a |-555~~~~ --000~~~~ ---------------------|
d |-555~~~~ --000~~~~ ---------------------|
Tap to rate this tab
# A B C D E F G H I J K L M N O P Q R S T U V W X Y Z