Song name
# A B C D E F G H I J K L M N O P Q R S T U V W X Y Z

Videodrone - Ty Jonathan Down tab

BITCHIN' TABS

          URL: www.angelfire.com/goth/btab/
	EMAIL: btabmaster@hotmail.com

        THIS IS AN EXCLUSIVE TAB TO "BITCHIN' TABS"

 ----------------------------------------------------------------------------------------------

	     SONG: Ty Jonathan Down
	     BAND: Videodrone
	    ALBUM: Videodrone
   TRANSCRIBED BY: Chris Frazier (btabmaster@hotmail.com)
	     DATE: 09-30-01

 ----------------------------------------------------------------------------------------------

	TUNING: Drop D (D A D G B E)

     Riff 1: (weird effects)
    E|--------------------|
    B|-7/12-11-----/11-10-|
    G|-----------9--------|
    D|--------------------|
    A|--------------------|
    D|--------------------|

     Riff 2: (rumble noise)
    E|---------------------|
    B|---------------------|
    G|---------------------|
    D|---------------------|
    A|---------------------|
    D|-0-0-0-0-1--0-0-0-0--|
     PM- - - - -  - - - -

     Riff 3: (weird effects)
    E|-10--15--10---10--15--10--9-|
    B|------------9---------------|
    G|----------------------------|
    D|----------------------------|
    A|----------------------------|
    D|----------------------------|

     Riff 4: (rumble noise)
    E|----------------------|
    B|----------------------|
    G|----------------------|
    D|----------------------|
    A|----------------------|
    D|-3-3-3-3-3--3-3-3-2-2-|
Tap to rate this tab
# A B C D E F G H I J K L M N O P Q R S T U V W X Y Z