Song name
# A B C D E F G H I J K L M N O P Q R S T U V W X Y Z

Vienna Teng - Homecoming tab

Here's the tab for Hey Monday's Homecoming. I'm pretty sure it's right even though I 
have Rhythm and Lead parts mixed together in this song. I'm tabbing what I could hear.

Key:
/-slide down
x-mute
^-bend

Intro:

e|0-3-5-7--5-3-0-3-5-7-5-3-0-3-5-7--5-3-0-3-5-7----|
B|-------------------------------------------------|
G|-------------------------------------------------|
D|-------------------------------------------------|
A|-------------------------------------------------|
D|---------------------------------------------14/0|

Verse 1:

e|-------------------------------------------------|
B|-------------------------------------------------|
G|------------9-9---2-2----------------------------| (x4)
D|2-2---7-7---9-9---2-2----------------------------|
A|2-2---7-7---7-7---0-0----------------------------|
D|2-2---7-7----------------------------------------|

Pre-Chorus:

e|-------------------------------------------------|
B|-------------------------------------------------|
G|-2---5-------------------------------------------|
D|-2---5-------------------------------------------|
A|-0---3-------------------------------------------|
D|-------------------------------------------------|

Chorus:

e|-------------------------------------------------|
B|-------------------------------------------------|
G|--------------9------2---------------------------|(x3)
D|2------7------9-(x6)-2-(x6)----------------------|
A|2-(x6)-7-(x6)-7------0---------------------------|
D|2------7-----------------------------------------|

e|-------------------------------------------------|
B|-------------------------------------------------|
G|----------------9-9xxxx-2-2xxxx------------------|
D|2-2xxxx-7-7xxxx-9-9xxxx-2-2xxxx------------------|
A|2-2xxxx-7-7xxxx-7-7xxxx-0-0xxxx------------------|
D|2-2xxxx-7-7xxxx----------------------------------|

Verse 2:

e|0-3-5-7--5-3-0-3-5-7-5-3-0-3-5-7--5-3-0-3-5-7----|
B|-------------------------------------------------|
G|-------------------------------------------------|
D|-------------------------------------------------|
A|-------------------------------------------------|
D|---------------------------------------------14/0|

e|-------------------------------------------------|
B|-------------------------------------------------|
G|------------9-9---2-2----------------------------| (x4)
D|2-2---7-7---9-9---2-2----------------------------|
A|2-2---7-7---7-7---0-0----------------------------|
D|2-2---7-7----------------------------------------|

Pre-Chorus:

e|-------------------------------------------------|
B|-------------------------------------------------|
G|-2---5-------------------------------------------|
D|-2---5-------------------------------------------|
A|-0---3-------------------------------------------|
D|-------------------------------------------------|

Chorus:

e|-------------------------------------------------|
B|-------------------------------------------------|
G|--------------9------2---------------------------|(x3)
D|2------7------9-(x6)-2-(x6)----------------------|
A|2-(x6)-7-(x6)-7------0---------------------------|
D|2------7-----------------------------------------|

e|-------------------------------------------------|
B|-------------------------------------------------|
G|----------------9-9xxxx-2-2xxxx------------------|
D|2-2xxxx-7-7xxxx-9-9xxxx-2-2xxxx------------------|
A|2-2xxxx-7-7xxxx-7-7xxxx-0-0xxxx------------------|
D|2-2xxxx-7-7xxxx----------------------------------|

Break:

e|-------------------------------------------------|
B|-------------------------------------------------|
G|5-------2-------4-------7-------5-------7--------|
D|5-(x16)-2-(x16)-4-(x16)-7-(x16)-5-(16x)-7-(x16)--|
A|3-------0-------2-------5-------3-------5--------|
D|-------------------------------------------------|

Solo:

e|--12^-12^--14^-14^--15^-(x8 hold bend)-17^-(x3 hold bend)--|
B|-----------------------------------------------------------|
G|-----------------------------------------------------------| (x2)
D|-----------------------------------------------------------|
A|-----------------------------------------------------------|
D|-----------------------------------------------------------|

Chorus:

e|-------------------------------------------------|
B|-------------------------------------------------|
G|--------------9------2---------------------------|(x3)
D|2------7------9-(x6)-2-(x6)----------------------|
A|2-(x6)-7-(x6)-7------0---------------------------|
D|2------7-----------------------------------------|

e|-------------------------------------------------|
B|-------------------------------------------------|
G|----------------9-9xxxx-2-2xxxx------------------|
D|2-2xxxx-7-7xxxx-9-9xxxx-2-2xxxx------------------|
A|2-2xxxx-7-7xxxx-7-7xxxx-0-0xxxx------------------|
D|2-2xxxx-7-7xxxx----------------------------------|

e|-------------------------------------------------|
B|-------------------------------------------------|
G|--------------9------2---------------------------|(x3)
D|2------7------9-(x6)-2-(x6)----------------------|
A|2-(x6)-7-(x6)-7------0---------------------------|
D|2------7-----------------------------------------|

e|-------------------------------------------------|
B|-------------------------------------------------|
G|----------------9-9xxxx-2-2xxxx------------------|
D|2-2xxxx-7-7xxxx-9-9xxxx-2-2xxxx------------------|
A|2-2xxxx-7-7xxxx-7-7xxxx-0-0xxxx------------------|
D|2-2xxxx-7-7xxxx----------------------------------|

End:

D|-2-|
A|-2-|
E|-2-|
Tap to rate this tab
# A B C D E F G H I J K L M N O P Q R S T U V W X Y Z