Song name
# A B C D E F G H I J K L M N O P Q R S T U V W X Y Z

Viettown - If Only tab

-----------------------------------------------------------------------------
			     If only - KT Tunstall
-----------------------------------------------------------------------------
Tabbed by:13mousey13
Email: Just message me if difficulties

Tuning:Standard

Verse with strumming pattern

E VV^V^V^                    Am VV^V^V^       Fmaj7 VV^V^V^  G VV^V^V^
Walkin' around in a daze__   Out for days__   now its been.___

E VV^V^V^         Am  VV^V^V^   Fmaj7 VV^V^V^     G VV^V^V^
Talkin' it up as ama - zing__  The maze that im in__

Repeat throughout song on verses

Tab For above part

e|-----4--2--0-------------------------------------|
B|--0----------3--0--1--------0--1--------0--------|
G|-------------------------2--------0--2-----------|  x2
D|-------------------------------------------------|
A|-------------------------------------------------|
E|-------------------------------------------------|

e|----7-7-5-4-2--0---------------------------------|
B|--0--------------1---0-1-----0-------------------|
G|-------------------2-----0-2---------------------|
D|-------------------------------------------------|
A|-------------------------------------------------|
E|-------------------------------------------------|

And Thats it, KT Tunstall rocks! This should be totally right coz my guitar teacher 
me it. If you want help to learn it or its wrong just message me!


| /  slide up
| \  slide down
| h  hammer-on
| p  pull-off
| ~  vibrato
| +  harmonic
| x  Mute note
===============================================================================
Tap to rate this tab
 
# A B C D E F G H I J K L M N O P Q R S T U V W X Y Z