Vigilante 8 2nd Offense - Rollerqueen tab

Intro:
---------------------|                           |------|
---------------------|                           |------|
---------------------|                           |------|
-0h2-0h2-0h2-0h2-0h2-|                           |------|
---------------------|                           |------|
---------------------|  X many times as needed   |-12s0-|

Part 1:

1st Guitar Riff 1: alone X4
---------------------------------|
---------------------------------|
---------------------------------|
---------------------------------|
-------------5-5-----7-7-5-5-----|
-0-0-5-5-7-7-----0-0---------7-7-|

2nd Guitar:
----------------------|     |-----|
----------------------|     |-----|
------------9-9-s-7---| X4  |-7s9-|
-7-7-s-9-9--9-9-s-7---|     |-7s9-|
-7-7-s-9-9--7-7-s-5---|     |-----|
-5-5-s-7-7------------|     |-----|

----------------------|
----------------------|
------------9-9-s-7---| X2
-7-7-s-9-9--9-9-s-7---|
-7-7-s-9-9--7-7-s-5---|
-5-5-s-7-7------------|

2nd Part

1st Guitar Riff 1: X4


2nd Guitar:

-10s12-12---|
-10s12-12---|
------------| X2
------------|
------------|
------------|

3rd Part: X4

--------------------|
--------------------|
-9--9-9--9-9--------| X2
-9--9-9--9-9--9-9-9-|
-7--7-7--7-7--9-9-9-|
--------------7-7-7-|

--------------------|
--------------------|
--------------------| X2
-7--7-7--7-7--9-9-9-|
-7--7-7--7-7--9-9-9-|
-5--5-5--5-5--7-7-7-|
Tap to rate this tab
 
# A B C D E F G H I J K L M N O P Q R S T U V W X Y Z