Song name
# A B C D E F G H I J K L M N O P Q R S T U V W X Y Z

Viikate - Hallamaatuska tab

VIIKATE - HALLAMAATUSKA
-----------------------
skyturnedred@gmail.com


INTRO:
e|-----------------------------------|
B|-8----6-6-6------------------------|
G|------------8-8-7-8-7---8-7-5------|
D|------------------------------8-7--|
A|-----------------------------------|
E|-----------------------------------|

LOPPUBIISI:
e|---------------------------------|
B|---------------------------------|
G|--------------5-7-8-7-5-7-5------|
D|-5--5-7-8-7-8---------------8-7--|
A|---------------------------------|
E|---------------------------------|

Käytännössä tuota voi toistaa koko biisin ajan. Sooloja tai sointuja en jaksa etsiskellä.

HARMONIA (ehkä):
e|------------------8-10-11-10-8-10-8-------|
B|-8--8-10-11-10-11-------------------11-10-|
G|------------------------------------------|
D|------------------------------------------|
A|------------------------------------------|
E|------------------------------------------|
Tap to rate this tab
 
# A B C D E F G H I J K L M N O P Q R S T U V W X Y Z