Song name
# A B C D E F G H I J K L M N O P Q R S T U V W X Y Z

Viking Skull - Skull Heaven tab

Good Rock Song
these are most the riffs 
feel free to change them there only ruff guests




Main Riff
|------------------------------------------|
|------------------------------------------|
|------------10-/12-12\-10-10---------5-7--|
|------------10-/12-12\-10-10---------5-7--|
|-/-/-2-222--8--/10-10\-8--8---2-222--3-5--|
|-/-/-0-000--------------------0-000-------|

somebody please show me the way to skull heaven

|-----------------------------|---|---|---|
|-----------------------------|---|---|---|
|-----------------------------|---|---|---|
|-----------------------------|---|---|---|then
|--2-222--2-222--2-222--2-222-|-3-|-5-|-3-|
|--0-000--0-000--0-000--0-000-|-1-|-3-|-1-|

|------------------------|
|------------------------|
|--10/-12-12-\10-5-5-7-7-|
|--0---0---0--0--0-0-0-0-|
|--8-/-10-10-\8--3-3-5-5-|
|------------------------|

those are most the riffs 
feel free to change them there only ruff guests
Tap to rate this tab
# A B C D E F G H I J K L M N O P Q R S T U V W X Y Z