Guitaretab - guitar tabs
Song name
# A B C D E F G H I J K L M N O P Q R S T U V W X Y Z

Vile - Engulfing Horde tab

Band: Vile
Album: Depopulate
Song: Engulfing Horde

Copyright (c) Unique Leader Records, 2002
Version 1.0, 24/12/2005, 25/12/2005

Suffixes for bend:
fb - full bend       hb - half bend
qb - quarter bend    t - tap bend
^ - Hold bend        r - release bend
~ - vibrato bend

Suffixes for harmonic:
ph - pinched harmonic      nh  natural harmonic
ah  artificial harmonic   hh  harp harmonic

Suffixes for mute:
.  palm mute            x  staccato mute
, - light palm mute      ; - heavy palm mute

Other:
/ - slide up to            \ - slide down to       
h - hammer on              p - pull off
 - sustained note         * - see comment
" - tremolo note           <> - Trill
L  left channel only      R  right channel only
= - 12 string guitar part 

Tuning Bb Eb Ab Db F Bb

Riff 1 (0:16) play 4 times
|---------------------------------------------------------------------------|
|--------------7"-------------------------------------7"--------------------|
|--------------------8"----------------------------------------7"-----------|
|----------8"-----5"-------7"----------------6"-7"-------7"----------6"-----|
|----5"-4"--------------4"-------6"----5"-4"-------5"-------9"--------------|
|-2"--------------------------3"----2"----------------------------8"----3"--|

-----------|
-----------|
-----------|
-----------|
-6"----3"--|
----6"-----|
[ Tab from: http://www.guitaretab.com/v/vile/101531.html ]
Riff 2 (0:49) play twice
|---------------------------------------------------------------------------|
|---------------------------------------------------------------------------|
|---------------------------------------------------------------------------|
|----4"-3"-------------------4"-3"---------5"----6"----4"-3"----------------|
|-4--------5"-4"-5"-------4--------5"-4--4"---4-----4--------5"-4"-5"-------|
|-2-----------------6"-7"-2-----------2-------2-----2-----------------6"-7"-|
  .                       .           .       .     .

----------------------------|
----------------------------|
------------------------6"--|
----4"-3"---------5"--------|
-4--------5"-4--4"---4------|
-2-----------2-------2------|
 .           .       .

Riff 3 (1:07) play twice
|------------------------------------------------------|
|------------------------------------------------------|
|--------------------------------------------------6"--|
|----5"-5"--------5"-----6"----5"-5"--------5"---------|
|-4---------4--3"-----4-----4---------4--3"-----4------|
|-2---------2---------2-----2---------2---------2------|
  .         .         .     .         .         .

Riff 1 x 1/2 (1:16)
Riff 2 x 1 (1:32)
Riff 3 x 1 (1:51)

Riff 4 (2:00) play 6 times
|------------------------------------------------|
|------------------------------------------------|
|------------------------------------------------|
|------------------------------------------------|
|-6h7p0-----4-2-------2h3p2-1-2---2-1-2---1------|
|-------0-0-----0-1-2-----------3-------3---2-2--|
        . .     . . .           .       .   . .

Solo begins (2:01)
Solo ends (2:13)

Riff 5 (2:20) play 4 times
|------------------------------|
|------------------------------|
|------------------------------|
|------------------------------|
|-5"------------------3"---5"--|
|----5"-6"--7"4"---2"----0"----|

Riff 4 x 2/3 (2:34)
Riff 5 x 1 (2:47)
End.
Related for Engulfing Horde tab