Song name
# A B C D E F G H I J K L M N O P Q R S T U V W X Y Z

Vile - Deafening Silence tab

Band: Vile
Album: The New Age of Chaos
Song: Deafening Silence


Code:
Suffixes for bend:
fb - full bend       hb - half bend
qb - quarter bend    t - tap bend
^ - Hold bend        r - release bend
~ - vibrato bend

Suffixes for harmonic:
ph - pinched harmonic      nh  natural harmonic
ah  artificial harmonic   hh  harp harmonic

Suffixes for mute:
.  palm mute            x  staccato mute
, - light palm mute      ; - heavy palm mute

Other:
/ - slide up to            \ - slide down to
h - hammer on              p - pull off
 - sustained note         * - see comment
" - tremolo note           <> - Trill
L  left channel only      R  right channel only
= - 12 string guitar part

Tuning Bb Eb Ab Db F Bb

Riff 1 (0:00) play 3 times
|----------------------------------------------|---------------------------|
|----------------------------------------------|---------------------------|
|-9\-------------------------------------------|-9\8/9---------------------|
|----------------------------------------------|---------------------------|
|-7\-------------------------0-2-3-2---2-------|-7\6/7---------------------|
|----0-0-0-0-0-0-0-0-0-0-1-4---------5---5-3-1-|-------0-0-0-0-0-0-0-0-0-0-|
     . . . . . . . . . . . . . . . . . . . . .         . . . . . . . . . .

-----------------------|----------------------------------------------|
-----------------------|----------------------------------------------|
-----------------------|-9\-------------------------------------------|
-----------------------|----------------------------------------------|
-----0-2-3-------------|-7\-------------------------0-2-3-------------|
-1-4-------0-2-3-0-1-2-|----0-0-0-0-0-0-0-0-0-0-1-4-------3-0-2-0-1---|
 . . . . . . . . . . .      . . . . . . . . . . . . . . . . . . . .

--------------------------------------------|
--------------------------------------------|
------------------5----------------------5--|
-------4--------4-4----------4---------4-4--|
-----3-3------3-3-3--------3-3-------3-3-3--|
-0-2-2-2--0-2-2-2-2--0-0-2-2-2---0-2-2-2-2--|
 . . .    . . . .    . . . .     . . . .

Riff 2a (0:41)
|-----------------------------------------------------------|
|-----------------------------------------------------------|
|----9--8--9----------------9-8--9-12--11-10-11----9--8--9--|
|-----------------------------------------------------------|
|----7--6--7----------------7-6--7-10--9--8--9-----7--6--7--|
|-0-----------0"........-0----------------------0-----------|

--------------------------------------------|
--------------------------------------------|
------------------5----------------------5--|
-------4--------4-4----------4---------4-4--|
-----3-3------3-3-3--------3-3-------3-3-3--|
-0-2-2-2--0-2-2-2-2--0-0-2-2-2---0-2-2-2-2--|
 . . .    . . . .    . . . .     . . . .

Riff 2b (0:51)
|-----------------------------------------------------------|
|-----------------------------------------------------------|
|----9--8--9----------------9-8--9-12--11-10-11----9--8--9--|
|-----------------------------------------------------------| gtr 1
|-2--7--6--7-------------2--7-6--7-10--9--8--9-----7--6--7--|
|-0-----------0"........-0----------------------0-----------|
|
|-----------------------------------------------------------|
|-----------------------------------------------------------|
|----12-11-12---------------1211-1215--14-13-14----12-11-12-|
|-----------------------------------------------------------| gtr 2
|-2--10-9--10------------2--109--1013--12-11-12----10-9--10-|
|-0-----------0"........-0----------------------0-----------|

--------------------------------------------|
--------------------------------------------|
------------------5----------------------5--|
-------4--------4-4----------4---------4-4--| both gtrs
-----3-3------3-3-3--------3-3-------3-3-3--|
-0-2-2-2--0-2-2-2-2--0-0-2-2-2---0-2-2-2-2--|
 . . .    . . . .    . . . .     . . . .

Riff 1 x 2/3 (1:01)
Riff 2a x 1 (1:30)
Riff 2b x (1:40)

Riff 3 (1:50) play 4 times
|--------------------------------------------------------------------|
|--------------------------------------------------------------------|
|--------------------------------------------------------------------|
|--------------------------------------------------------------------|
|-5-5-5-5-5-5-5-6-5-5-5-5-5-5-5-5-9--8-8-8-8-8-8-8-2-3-3-3-2-3---0---|
|-7-7-7-7-7-7-7-8-7-7-7-7-7-7-7-7-10-9-9-9-9-9-9-9-3-4-4-4-----4---1-|
  . . . . . . . . . . . . . . . . .  . . . . . . . . . . . . . . .

Riff 4 (2:09) play 4 times
|-----------------------------------------------------|
|-----------------------------------------------------|
|---------9--8--9----------12-13----------------------|
|--------------------------9--10----------------------|
|---------7--6--7----------7--8-----------------------|
|-000-000----------000-000-------8~-9~-0-6--5--2--1~--|
  ... ...          ... ...             .

Riff 3 x 1 (2:28)
Solo begins at (2:28)
Riff 4 x 1 (2:47)

Riff 5a (3:06)
|----------------------------|-------------------------------------|
|----------------------------|-------------------------------------|
|-----9-\8----8--14-\13-13---|-----9--8---8--9---4--5--------------|
|-2--------------------------|-2-----------------------------------|
|-2---7-\6----6--12-\11-11---|-2---7--6---6--7---2--3----2-3-1-2-2-|
|-0-----------7--13-----12---|-0----------7--8---3--4--0-4-5-2-3-0-|
                                                 .     . . . .

Riff 5b (3:16) play 3 times
|----------------------------|-------------------------------------|
|----------------------------|-------------------------------------|
|-----9-\8----8--14-\13-13---|-17/-9--8---8--9---4--5--------------|
|-2--------------------------|-------------------------------------|
|-2---7-\6----6--12-\11-11---|-15/-7--6---6--7---2--3----2-3-1-2-2-|
|-0-----------7--13-----12---|-16/--------7--8---3--4--0-4-5-2-3-0-|
                                                 .     . . . .

Riff 6 (3:43) play twice
|---------------------------|-------------------------------|
|---------------------------|-------------------------------|
|---------------------------|-------------------------------|
|-------5-----4-------------|-------5-----4-----------------|
|-2-----2-----1-------------|-2-----2-----1-----2--3--1--2--|
|-0-------------------------|-0-----------------4--5--3--4--|
                                                .  .  .  .
Riff 5a x 1 (4:01)
Riff 5b x 1 (4:10)
Riff 6 x 1 (4:19)
Solo begins (4:19)

End (4:37)
|----------------|
|----------------|
|----------------|
|----------------|
|-2--------------|
|-0--------------|
Tap to rate this tab
# A B C D E F G H I J K L M N O P Q R S T U V W X Y Z