Song name
# A B C D E F G H I J K L M N O P Q R S T U V W X Y Z

Vile - Terminal Existence tab

Band: Vile
Album: Stench of the Deceased
Song: Terminal Existence

 
Code:
Suffixes for bend:
fb - full bend       hb - half bend
qb - quarter bend    t - tap bend
^ - Hold bend        r - release bend
~ - vibrato bend

Suffixes for harmonic:
ph - pinched harmonic      nh  natural harmonic
ah  artificial harmonic   hh  harp harmonic

Suffixes for mute:
.  palm mute            x  staccato mute
, - light palm mute      ; - heavy palm mute

Other:
/ - slide up to            \ - slide down to       
h - hammer on              p - pull off
 - sustained note         * - see comment
" - tremolo note           <> - Trill
L  left channel only      R  right channel only
= - 12 string guitar part

Tuning A D G C E A

Riff 1 (0:21) play twice
|---------------------------------------------------|
|-------------------------------------------0h7h10--|
|-------------------------------------0h5h8---------|
|-------------------------------0h4h7---------------|
|-0h3h6-0h3h6-0h3h6-0h3h6-0h3h6---------------------|
|---------------------------------------------------|

Riff 2 (0:26) play 6 times
|--------------------------------------------------|
|--------------------------------------------------|
|--------------------------------------------------|
|-------0h3h6-------0h4h7-------0h5h8-------0h6h9--|
|-0h1h4-------0h1h4-------0h2h5-------0h2h5--------|
|--------------------------------------------------|

Riff 3a (0:40) play twice
|-------------------------------------------------|
|-------------------------------------------------|
|----------5"----------5"-------------------------|
|----7"-4"-------7"-4"-------4"-3"----3"-2"----2"-|
|-5"----------5"----------2"-------4"-------1"----|
|-------------------------------------------------|

Riff 3b (0:49) play twice
|-------------------------------------------------|
|-------------------------------------------------|
|-5"----------5"----------------------------------|
|----4"-7"-------4"-7"-------4"-3"----3"-2"----2"-|
|----------5"----------5"-2"-------4"-------1"----|
|-------------------------------------------------|

Riff 4 (0:59) play 3 times
|------------------------------------------------------------------|
|------------------------------------------------------------------|
|-8/11\8--------------------------8/11\7---------------------------|
|------------------------------------------------------------------|
|-6/9-\6--------------------------6/9-\5---------------------------|
|---------5"-6"-8"-7"-5"-6"-8"-7"---------5"-6"-8"-7"-5"-6"-8"-7"--|

Riff 3a x 1 (1:18)
Riff 3b x 1 (1:26)
Riff 4 x 1 (1:35)

Riff 5 (1:53) play 6 times
|------------------------------------------|
|------------------------------------------|
|---------3"----4"-------------------------|
|-----------------------2"-3"--------------|
|-1"---------1"---------------2"-3"-2"-0"--|
|------------------------------------------|

Riff 6a (2:23)
|----------------------------------------------------------|
|------------------------------------------------------5"--|
|-----------------------------------------2"--1"-----------|
|-------------------------4-5-3-----2-1----------3"-2"-----|
|-000-000-000-000-000-333-2-3-1-333-----3------------------|
|----------------------------------------------------------|
  ... ... ... ... ... ... . . . ...

Riff 6b (2:29) play 7 times
|---------------------------------------------------------|
|-----------------------------------------------------5"--|
|----------------------------------------2"--1"-----------|
|-2----------------------4-5-3-----2p1----------3"-2"-----|
|-0--0-0-0-0-000-000-333-2-3-1-333-----3------------------|
|---------------------------------------------------------|
     . . . . ... ... ... . . . ...

Riff 7 (3:05) play 4 times
|--------------------------------------------|
|--------------------------------------------|
|--------------------------------------------|
|-9"-----10"-------------4"-----5"-----------|
|-------------9-10------------------4-5------|
|------------------12-11----------------7-6--|
              . .  .  .             . . . .

Riff 8 (3:24) play 10 times
|------------------------------------------|
|------------------------------------------|
|------------------------------------------|
|---4-3-2-------5-3-2-------2---2---2---2--|
|-2-------4-3-2-------4-3-1---1---1---1----|
|------------------------------------------|
  .       . . .       . . .   .   .   .
Tap to rate this tab
# A B C D E F G H I J K L M N O P Q R S T U V W X Y Z