Song name
# A B C D E F G H I J K L M N O P Q R S T U V W X Y Z

Villagers - In A Newfound Land You Are Free tab

Villagers - In A Newfound Land You Are Free

Standard Tuning

Intro                                   last time
e|-----------------------------------|--------------2-----|
B|------3---3--------2---0-----------|------3---3---3-----|
G|------2---2--------0---0-----------|------2---2---------|  
D|----4---4---4----0---0-----(x8)----|----4---4---4-------|
A|--0-----------0p2------------------|--0-----------------|
E|-----------------------------------|--------------------|

Verse I
e|------------------------------|
B|------2---2-------3---3-------|
G|------3---3-------4---4-------|  
D|----4---4---4---4---4---------|
A|--------------2---------------|
E|--2---------------------------|
How heavy you are 

e|------------------------------|
B|-------5---5-------3---3------|
G|-------5---5-------4---4------|  
D|-----5---5---5---5---5---5----|
A|---3--------------------------|
E|---------------3--------------|
My newborn child

e|------------------------------|
B|-------5---5-------3---3------|
G|-------5---5-------4---4------|  
D|-----5---5---5---5---5---5----|
A|---3--------------------------|
E|---------------3--------------|
so viciously free

e|------------------------------|
B|------2---2-------3---3-------|
G|------3---3-------4---4-------|  
D|----4---4---4---4---4---------|
A|--------------2---------------|
E|--2---------------------------|
so careless and wild

e|------------------------------|
B|-------5---5-------3---3------|
G|-------5---5-------4---4------|  
D|-----5---5---5---5---5---5----|
A|---3--------------------------|
E|---------------3--------------|
with the eyes of a saint 

e|------------------------------|
B|------2---2-------3---3-------|
G|------3---3-------4---4-------|  
D|----4---4---4---4---4---------|
A|--------------2---------------|
E|--2---------------------------|
and the soul of a thief

e|-----------------------------------|
B|------3---3--------2---0-----------|
G|------2---2--------0---0-----------|  
D|----4---4---4----0---0-----(x4)----|
A|--0-----------0p2------------------|
E|-----------------------------------|
  and in a newfound land 

Verse II (same as verse I)

the windows revealed
the spinning sea
which ripples and rolls
and runs underneath
As I smuggle a sense
of sheer disbelieve 
in a newfound land

Born in the birth 
of the mild month of May
and her gentle repulse
I could never betray
but for now I am burned
by a lifetime too brief

and with this newfound land
comes a newfound grieve

Outro
e|--------------------------------------------------------|
B|------3---3-------3---3-------3---3--------6---6---6----|
G|------2---2-------2---2-------2---2--------5---5---5----|  
D|----3---3---3---3---3---3---3---3---3----6---6---6---6--|
A|--0-----------1-----------2-----------/5----------------|
E|--------------------------------------------------------|
     But in a newfound land 

e|------------------------------------------------|
B|------5---5---5---5---7---8---8---8---8---------|
G|------6---6---6---6---6---6---6---6---6---------|  
D|----7---7---7---7---7---7---7---7---7-----------|
A|--0---------------------------------------------|
E|------------------------------------------------|
   she is free

e|-----------------------------------|
B|------3---3--------2---0-----------|
G|------2---2--------0---0-----------|  
D|----4---4---4----0---0-----(x4)----|
A|--0-----------0p2------------------|
E|-----------------------------------|
   you are free
Tap to rate this tab
 
# A B C D E F G H I J K L M N O P Q R S T U V W X Y Z