Song name
# A B C D E F G H I J K L M N O P Q R S T U V W X Y Z

Vince Guaraldi - O Tannenbaum tab

-------------------------------------------------------------------------------
			     O Tannenbaum - Vince Guaraldi Trio
-------------------------------------------------------------------------------
Tabbed by: Gabriel


Here's the intro to Vince Guaraldi's lovely version captured for the Charlie Brown 
soundtrack.

There are some melodically okay versions of this already up, but this is in key with the 
so you can play along =)

Throw in some slides and vibrato on the long notes to make it extra jazzay.

Tuning: standard

e|---------------------------------------------------------------------------|
B|---------6----6----6-----8-----10-----10-----10----------------------------|
G|--5------------------------------------------------------------------------|
D|---------------------------------------------------------------------------|
A|---------------------------------------------------------------------------|
E|---------------------------------------------------------------------------|

e|---------------------------------------------------------------------------|
B|---10-----8------10-----11-------------8------6-----6----------------------|
G|---------------------------------9-----------------------------------------|
D|---------------------------------------------------------------------------|
A|---------------------------------------------------------------------------|
E|---------------------------------------------------------------------------|

e|----8-----8------5-----10-----8-----8----6------6--------------------------|
B|---------------------------------------------------------------------------|
G|---------------------------------------------------------------------------|
D|---------------------------------------------------------------------------|
A|---------------------------------------------------------------------------|
E|---------------------------------------------------------------------------|

e|-----6----6-----3----8-----6----6----5-----5-------------------------------|
B|---------------------------------------------------------------------------|
G|---------------------------------------------------------------------------|
D|---------------------------------------------------------------------------|
A|---------------------------------------------------------------------------|
E|---------------------------------------------------------------------------|

...Repeat first two measures and you're in business.
Tap to rate this tab
 
# A B C D E F G H I J K L M N O P Q R S T U V W X Y Z