Song name
# A B C D E F G H I J K L M N O P Q R S T U V W X Y Z

Vince Taylor And His Playboys - Brand New Cadillac tab

Help us improve GuitareTab! Take a short survey!
This is the original version of the wellknown song covered by The Clash and many others.

Main riff:
E-------------------|
B-------------------|
G-------------------|
D-------------------|
A-----------8-8-9-8-|
E-8-8-11-11---------|

C
Well my baby drove off in a brand new cadillac
F                                     C
Ooh, my baby drove off in a brand new cadillac
G                        F#  F                      C         G
Well she looked at me, daddy, I ain't never comin' back

I said baby-baby-baby won't you listen to me
Come on sugar, come on hear my plea
Well she looked at my Ford, we'll never agree
Cadillac car! Oh yeah!

Guitarsolo on verse

Well the Caddy's rollin' and going 'bout ninety-five
Well the Caddy's rollin' and going 'bout ninety-five
Well me and my Ford, we're right by here side

I said baby-baby-baby won't you listen to me
Come on baby, come on hear my plea
Turn that big car around, come on back to me
Hangin' on Scotty, here we go!

Guitarsolo on verse

Well my baby drove off in a brand new cadillac
Ooh, my baby drove off in a brand new cadillac
Well she looked at me, daddy, I ain't never comin' back
C
I ain't never comin' back
I ain't never comin' back
I ain't never comin' back

Guitarsolo:
E-15-15-15-15-15-15-15-15-15-15-15-17-15-17-15--|
B-16-16-16-16-16-16-16-16-16-16-16-16-16-16-16--|
G-----------------------------------------------|
D-----------------------------------------------|
A-----------------------------------------------|
E-----------------------------------------------|

E-15-15-15-15-15-15-15-15-15-17-15-17-18-15--|
B-16-16-16-16-16-16-16-16-16-16-16-16-16-16--|
G--------------------------------------------|
D--------------------------------------------|
A--------------------------------------------|
E--------------------------------------------|

E-13-13-15-16-15-13-13-13-15-16-15-13--|
B-13-13-------------13-13--------------|
G--------------------------------------|
D--------------------------------------|
A--------------------------------------|
E--------------------------------------|

E-8-8-10-11-10-8-8-8-10-11-10-8--|
B-8-8------------8-8-------------|
G--------------------------------|
D--------------------------------|
A--------------------------------|
E--------------------------------|

E-15-15-15-15-15-14-13--------3---3---3---3----|
B-15-15-15-15-15-14-13----------4---4---4---3--|
G----------------------------------------------|
D----------------------------------------------|
A----------------------------------------------|
E----------------------------------------------|
Related for Brand New Cadillac tab