Song name
# A B C D E F G H I J K L M N O P Q R S T U V W X Y Z

Vince Vaccaro - Costa Rica tab

Tab: Costa Rica
By: Vince Viccaro
Tabbed By: Douglas Bissett

  Em       C    G      F#/D          Em      C      G     F#/D
 
e|-------0---0--------------------|-----3------2-------------------|
B|-----0---3------3----12\10p0----|-------------------3------------|
G|---0---------/4-----------------|--/4-----/2-----/4-----2p0------|
D|-2---------------------------12-|---------------------------2p0--|
A|--------------------------------|--------------------------------|
E|--------------------------------|--------------------------------|


   Em        C    G    F#/D           Em     C    G     F#/D

e|---------0---0------------------|-----3------2----3-------------|
B|-------0---3------3--12\10p0----|-------------------------------|
G|-----0---------/4---------------|--/4-----/2---/4---------------|
D|-0h2-------------------------12-|-------------------------------|
A|--------------------------------|-------------------------------|
E|--------------------------------|-------------------------------|


Enjoy!!
Tap to rate this tab
# A B C D E F G H I J K L M N O P Q R S T U V W X Y Z