Song name
# A B C D E F G H I J K L M N O P Q R S T U V W X Y Z

Vincent Lindsey Clark - Steely Blue tab

----------------------------------------------------------------------------
			    STEELY BLUE - Vincent Lindsey Clark
----------------------------------------------------------------------------
Tabbed by: Termaniger
This is my first tab, please rate and comment.

Tuning: standard

E|-0----3/5-3--0--------------------1--------------0--------------------------|
B|---------------4--3--1--2--0--2-------------3-------------------------------|
G|----------------------------------------2----------1----2-------------------|
D|----------------------------------------------------------------------------|
A|------------------------------------0---2-----2---------0--2--3--0----------|
E|-------------------------------------------------0---0----------------------|


E|-0----3/5-3--0---------0-----------0-----0------------------------1--0------|
B|---------------4-3-1-3---1------------------0----1----------0---------------|
G|---------------------------2----2------------------------------2-------1----|
D|-------------------------------------------------------0-2--1--0---0--------|
A|-----------------------------0-------------------0-2-3----------------------|
E|--------------------------------1----1---4----4----------------------0---0--|


E|--------------------1----0------------------------------------0-------1-----|
B|---1--------1--------------------------------1--------3---------------------|
G|-2---2-0-2-------2---------1----2---------2--------2-------2--------2-------|
D|-----------------0----0-----------2-0-------------------------------0---0---|
A|-0------------0-----------------0-----3-2-0-----0--2----2--3-----3----------|
E|-------------------------0---0----------------------------------------------|


E|---0-------------------------------------0----------1-----------5-----------|
B|------4---3-1--------1---------3----------------------------3/5----3\1------|
G|--------------2-0-2------0--2-------0--2------0--2--------------------------|
D|-------------------------------------------------0----0---------------------|
A|------------------0----0----2----2-----3---3--------------------------------|
E|-0-------------------------------------------------------0------------------|


E|-------------|
B|-------------|
G|-2-0-2-------|
D|-------------|
A|-----------0-|
E|-------0h3---|

E|-0----3/5-3--0--------------------1--------------0--------------------------|
B|---------------4--3--1--2--0--2-------------3-------------------------------|
G|----------------------------------------2----------1----2-------------------|
D|----------------------------------------------------------------------------|
A|------------------------------------0---2-----2---------0--2--3--0----------|
E|-------------------------------------------------0---0----------------------|

E|-0----3/5--3--8-7---5-0---0------------1--0---------------------------------|
B|------------------------4---1--------0-------0-------0---0------------0-----|
G|-----------------------------------2---------------2---2---2--------2---2---|
D|---------------------------------0------------------------------------------|
A|-----------------------------0----------------------------------------------|
E|------------------------------------------0--0---1-------1----1---1---------|

E|----0-----------5---------------------------2--|
B|-0---------3/5-----3\1----------------------1--|
G|----2-------------------2--0--2-------------0--|
D|-----------------------------------------------|
A|---------------------------------------0-------|
E|-1------0-------------------------0h3----------|
************************************

| /   slide up
| \   slide down
| h   hammer-on

************************************
Tap to rate this tab
 
# A B C D E F G H I J K L M N O P Q R S T U V W X Y Z