Song name
# A B C D E F G H I J K L M N O P Q R S T U V W X Y Z

Vincent Vallieres - Le Temps Passe tab

                               le temps passe                                  


                                                               Vincent Vallieres
rythm (Capo 2)


-----------------------|------------------------|
-------|-----------------------|------------------------|
-------|-------0-------0-------|--0--0--4----0--4----0--|
-------|--2---------2-------2--|------------------------|


  Q    Q    E  Q    E     E  E  Q    E  Q    E     Q    Q    E  Q    E   
-----------------------|------------------------|-----------------------|
-----------------------|------------------------|-----------------------|
-----------------------|----------------2-------|-----------------------|
-----------------------|--------0-------4-------|-----------------------|
-----------------------|--2--2-------2-------0--|-------0-------0-------|
--0----4----0--4----4--|------------------------|--2---------2-------2--|


  E  E  Q    E  Q    E     Q    Q    E  Q    E     E  E  Q    E  Q    E         
------------------------|-----------------------|------------------------|-----|
------------------------|-----------------------|------------------------|-----|
------------------------|-----------------------|----------------2-------|-----|
------------------------|-----------------------|--------0-------4-------|-----|
--0--0--4----0--4----0--|-----------------------|--2--2-------2-------0--|-----|
------------------------|--0----4----0--4----4--|------------------------|-----|

                     Em                      G                     
                     E  Q    Q    Q    E     E  Q    Q    Q    E   
E||-------|-------|--0--0----0----0----0--|--3--3----3----3----3--|
B||-------|-------|--0--0----0----0----0--|--0--0----0----0----0--|
G||-------|-------|--0--0----0----0----0--|--0--0----0----0----0--|
D||-------|-------|--2--2----2----2----2--|--0--0----0----0----0--|
A||-------|-------|--2--2----2----2----2--|--2--2----2----2----2--|
E||-------|-------|--0--0----0----0----0--|--3--3----3----3----3--|


  D                       Asus2                Em    Em                    
  E  Q    Q    Q    E     E     Q    Q    Q    E     E  Q    Q    Q    E   
--2--2----2----2----2--|--0-----0----0----0----0--|--0--0----0----0----0--|
--3--3----3----3----3--|--0-----0----0----0----0--|--0--0----0----0----0--|
--2--2----2----2----2--|--2-----2----2----2----0--|--0--0----0----0----0--|
--0--0----0----0----0--|--2-----2----2----2----2--|--2--2----2----2----2--|
-----------------------|--0-----0----0----0----2--|--2--2----2----2----2--|
-----------------------|-----------------------0--|--0--0----0----0----0--|


  G                       D                       Asus2                Em  
  E  Q    Q    Q    E     E  Q    Q    Q    E     E     Q    Q    Q    E   
--3--3----3----3----3--|--2--2----2----2----2--|--0-----0----0----0----0--|
--0--0----0----0----0--|--3--3----3----3----3--|--0-----0----0----0----0--|
--0--0----0----0----0--|--2--2----2----2----2--|--2-----2----2----2----0--|
--0--0----0----0----0--|--0--0----0----0----0--|--2-----2----2----2----2--|
--2--2----2----2----2--|-----------------------|--0-----0----0----0----2--|
--3--3----3----3----3--|-----------------------|-----------------------0--|


  Em                      G                       D                     
  E  Q    Q    Q    E     E  Q    Q    Q    E     E  Q    Q    Q    E   
--0--0----0----0----0--|--3--3----3----3----3--|--2--2----2----2----2--|
--0--0----0----0----0--|--0--0----0----0----0--|--3--3----3----3----3--|
--0--0----0----0----0--|--0--0----0----0----0--|--2--2----2----2----2--|
--2--2----2----2----2--|--0--0----0----0----0--|--0--0----0----0----0--|
--2--2----2----2----2--|--2--2----2----2----2--|-----------------------|
--0--0----0----0----0--|--3--3----3----3----3--|-----------------------|


  Asus2                Em    Em                      G                     
  E     Q    Q    Q    E     E  Q    Q    Q    E     E  Q    Q    Q    E   
--0-----0----0----0----0--|--0--0----0----0----0--|--3--3----3----3----3--|
--0-----0----0----0----0--|--0--0----0----0----0--|--0--0----0----0----0--|
--2-----2----2----2----0--|--0--0----0----0----0--|--0--0----0----0----0--|
--2-----2----2----2----2--|--2--2----2----2----2--|--0--0----0----0----0--|
--0-----0----0----0----2--|--2--2----2----2----2--|--2--2----2----2----2--|
-----------------------0--|--0--0----0----0----0--|--3--3----3----3----3--|


  D                       Asus2                Em    Em                    
  E  Q    Q    Q    E     E     Q    Q    Q    E     E  Q    Q    Q    E   
--2--2----2----2----2--|--0-----0----0----0----0--|--0--0----0----0----0--|
--3--3----3----3----3--|--0-----0----0----0----0--|--0--0----0----0----0--|
--2--2----2----2----2--|--2-----2----2----2----0--|--0--0----0----0----0--|
--0--0----0----0----0--|--2-----2----2----2----2--|--2--2----2----2----2--|
-----------------------|--0-----0----0----0----2--|--2--2----2----2----2--|
-----------------------|-----------------------0--|--0--0----0----0----0--|


  G                       D                       Asus2                Em  
  E  Q    Q    Q    E     E  Q    Q    Q    E     E     Q    Q    Q    E   
--3--3----3----3----3--|--2--2----2----2----2--|--0-----0----0----0----0--|
--0--0----0----0----0--|--3--3----3----3----3--|--0-----0----0----0----0--|
--0--0----0----0----0--|--2--2----2----2----2--|--2-----2----2----2----0--|
--0--0----0----0----0--|--0--0----0----0----0--|--2-----2----2----2----2--|
--2--2----2----2----2--|-----------------------|--0-----0----0----0----2--|
--3--3----3----3----3--|-----------------------|-----------------------0--|


  Em                      G                       D                     
  E  Q    Q    Q    E     E  Q    Q    Q    E     E  Q    Q    Q    E   
--0--0----0----0----0--|--3--3----3----3----3--|--2--2----2----2----2--|
--0--0----0----0----0--|--0--0----0----0----0--|--3--3----3----3----3--|
--0--0----0----0----0--|--0--0----0----0----0--|--2--2----2----2----2--|
--2--2----2----2----2--|--0--0----0----0----0--|--0--0----0----0----0--|
--2--2----2----2----2--|--2--2----2----2----2--|-----------------------|
--0--0----0----0----0--|--3--3----3----3----3--|-----------------------|


  Asus2                Em    G                       D                     
  E     Q    Q    Q    E     E  Q    Q    Q    E     E  Q    Q    Q    E   
--0-----0----0----0----0--|--3--3----3----3----3--|--2--2----2----2----2--|
--0-----0----0----0----0--|--0--0----0----0----0--|--3--3----3----3----3--|
--2-----2----2----2----0--|--0--0----0----0----0--|--2--2----2----2----2--|
--2-----2----2----2----2--|--0--0----0----0----0--|--0--0----0----0----0--|
--0-----0----0----0----2--|--2--2----2----2----2--|-----------------------|
-----------------------0--|--3--3----3----3----3--|-----------------------|


  Asus2                Em    Em                      G                     
  E     Q    Q    Q    E     E  Q    Q    Q    E     E  Q    Q    Q    E   
--0-----0----0----0----0--|--0--0----0----0----0--|--3--3----3----3----3--|
--0-----0----0----0----0--|--0--0----0----0----0--|--0--0----0----0----0--|
--2-----2----2----2----0--|--0--0----0----0----0--|--0--0----0----0----0--|
--2-----2----2----2----2--|--2--2----2----2----2--|--0--0----0----0----0--|
--0-----0----0----0----2--|--2--2----2----2----2--|--2--2----2----2----2--|
-----------------------0--|--0--0----0----0----0--|--3--3----3----3----3--|


  D                       Asus2                                        Em  
  E  Q    Q    Q    E     E     Q    Q    Q    E     E  Q    Q    Q    E   
--2--2----2----2----2--|--0-----0----0----0----0--|--0--0----0----0----0--|
--3--3----3----3----3--|--0-----0----0----0----0--|--0--0----0----0----0--|
--2--2----2----2----2--|--2-----2----2----2----2--|--2--2----2----2----0--|
--0--0----0----0----0--|--2-----2----2----2----2--|--2--2----2----2----2--|
-----------------------|--0-----0----0----0----0--|--0--0----0----0----2--|
-----------------------|--------------------------|--------------------0--|


  G                       D                       Asus2                Em  
  E  Q    Q    Q    E     E  Q    Q    Q    E     E     Q    Q    Q    E   
--3--3----3----3----3--|--2--2----2----2----2--|--0-----0----0----0----0--|
--0--0----0----0----0--|--3--3----3----3----3--|--0-----0----0----0----0--|
--0--0----0----0----0--|--2--2----2----2----2--|--2-----2----2----2----0--|
--0--0----0----0----0--|--0--0----0----0----0--|--2-----2----2----2----2--|
--2--2----2----2----2--|-----------------------|--0-----0----0----0----2--|
--3--3----3----3----3--|-----------------------|-----------------------0--|


  Em                      G                       D                     
  E  Q    Q    Q    E     E  Q    Q    Q    E     E  Q    Q    Q    E   
--0--0----0----0----0--|--3--3----3----3----3--|--2--2----2----2----2--|
--0--0----0----0----0--|--0--0----0----0----0--|--3--3----3----3----3--|
--0--0----0----0----0--|--0--0----0----0----0--|--2--2----2----2----2--|
--2--2----2----2----2--|--0--0----0----0----0--|--0--0----0----0----0--|
--2--2----2----2----2--|--2--2----2----2----2--|-----------------------|
--0--0----0----0----0--|--3--3----3----3----3--|-----------------------|


  Asus2                Asus2    Asus2                 Em                    
  E     Q    Q    Q    E        Q     H.              E  Q    Q    Q    E   
--0-----0----0----0----0-----|--0------------------|--0--0----0----0----0--|
--0-----0----0----0----0-----|--0------------------|--0--0----0----0----0--|
--2-----2----2----2----2-----|--2------------------|--0--0----0----0----0--|
--2-----2----2----2----2-----|--2------------------|--2--2----2----2----2--|
--0-----0----0----0----0-----|--0------------------|--2--2----2----2----2--|
-----------------------------|---------------------|--0--0----0----0----0--|


  G                       D                       Asus2                Em  
  E  Q    Q    Q    E     E  Q    Q    Q    E     E     Q    Q    Q    E   
--3--3----3----3----3--|--2--2----2----2----2--|--0-----0----0----0----0--|
--0--0----0----0----0--|--3--3----3----3----3--|--0-----0----0----0----0--|
--0--0----0----0----0--|--2--2----2----2----2--|--2-----2----2----2----0--|
--0--0----0----0----0--|--0--0----0----0----0--|--2-----2----2----2----2--|
--2--2----2----2----2--|-----------------------|--0-----0----0----0----2--|
--3--3----3----3----3--|-----------------------|-----------------------0--|


  Em                      G                       D                     
  E  Q    Q    Q    E     E  Q    Q    Q    E     E  Q    Q    Q    E   
--0--0----0----0----0--|--3--3----3----3----3--|--2--2----2----2----2--|
--0--0----0----0----0--|--0--0----0----0----0--|--3--3----3----3----3--|
--0--0----0----0----0--|--0--0----0----0----0--|--2--2----2----2----2--|
--2--2----2----2----2--|--0--0----0----0----0--|--0--0----0----0----0--|
--2--2----2----2----2--|--2--2----2----2----2--|-----------------------|
--0--0----0----0----0--|--3--3----3----3----3--|-----------------------|


  Asus2                Em    Em                      G                     
  E     Q    Q    Q    E     E  Q    Q    Q    E     E  Q    Q    Q    E   
--0-----0----0----0----0--|--0--0----0----0----0--|--3--3----3----3----3--|
--0-----0----0----0----0--|--0--0----0----0----0--|--0--0----0----0----0--|
--2-----2----2----2----0--|--0--0----0----0----0--|--0--0----0----0----0--|
--2-----2----2----2----2--|--2--2----2----2----2--|--0--0----0----0----0--|
--0-----0----0----0----2--|--2--2----2----2----2--|--2--2----2----2----2--|
-----------------------0--|--0--0----0----0----0--|--3--3----3----3----3--|


  D                       Asus2                Em    Em                    
  E  Q    Q    Q    E     E     Q    Q    Q    E     E  Q    Q    Q    E   
--2--2----2----2----2--|--0-----0----0----0----0--|--0--0----0----0----0--|
--3--3----3----3----3--|--0-----0----0----0----0--|--0--0----0----0----0--|
--2--2----2----2----2--|--2-----2----2----2----0--|--0--0----0----0----0--|
--0--0----0----0----0--|--2-----2----2----2----2--|--2--2----2----2----2--|
-----------------------|--0-----0----0----0----2--|--2--2----2----2----2--|
-----------------------|-----------------------0--|--0--0----0----0----0--|


  G                       D                       Asus2                Em  
  E  Q    Q    Q    E     E  Q    Q    Q    E     E     Q    Q    Q    E   
--3--3----3----3----3--|--2--2----2----2----2--|--0-----0----0----0----0--|
--0--0----0----0----0--|--3--3----3----3----3--|--0-----0----0----0----0--|
--0--0----0----0----0--|--2--2----2----2----2--|--2-----2----2----2----0--|
--0--0----0----0----0--|--0--0----0----0----0--|--2-----2----2----2----2--|
--2--2----2----2----2--|-----------------------|--0-----0----0----0----2--|
--3--3----3----3----3--|-----------------------|-----------------------0--|


  Em                      G                       D                     
  E  Q    Q    Q    E     E  Q    Q    Q    E     E  Q    Q    Q    E   
--0--0----0----0----0--|--3--3----3----3----3--|--2--2----2----2----2--|
--0--0----0----0----0--|--0--0----0----0----0--|--3--3----3----3----3--|
--0--0----0----0----0--|--0--0----0----0----0--|--2--2----2----2----2--|
--2--2----2----2----2--|--0--0----0----0----0--|--0--0----0----0----0--|
--2--2----2----2----2--|--2--2----2----2----2--|-----------------------|
--0--0----0----0----0--|--3--3----3----3----3--|-----------------------|


  Asus2                Em    Em                      G                     
  E     Q    Q    Q    E     E  Q    Q    Q    E     E  Q    Q    Q    E   
--0-----0----0----0----0--|--0--0----0----0----0--|--3--3----3----3----3--|
--0-----0----0----0----0--|--0--0----0----0----0--|--0--0----0----0----0--|
--2-----2----2----2----0--|--0--0----0----0----0--|--0--0----0----0----0--|
--2-----2----2----2----2--|--2--2----2----2----2--|--0--0----0----0----0--|
--0-----0----0----0----2--|--2--2----2----2----2--|--2--2----2----2----2--|
-----------------------0--|--0--0----0----0----0--|--3--3----3----3----3--|


  D                       Asus2                Em    G                     
  E  Q    Q    Q    E     E     Q    Q    Q    E     E  Q    Q    Q    E   
--2--2----2----2----2--|--0-----0----0----0----0--|--3--3----3----3----3--|
--3--3----3----3----3--|--0-----0----0----0----0--|--0--0----0----0----0--|
--2--2----2----2----2--|--2-----2----2----2----0--|--0--0----0----0----0--|
--0--0----0----0----0--|--2-----2----2----2----2--|--0--0----0----0----0--|
-----------------------|--0-----0----0----0----2--|--2--2----2----2----2--|
-----------------------|-----------------------0--|--3--3----3----3----3--|


  D                       Asus2                Em    Em                    
  E  Q    Q    Q    E     E     Q    Q    Q    E     E  Q    Q    Q    E   
--2--2----2----2----2--|--0-----0----0----0----0--|--0--0----0----0----0--|
--3--3----3----3----3--|--0-----0----0----0----0--|--0--0----0----0----0--|
--2--2----2----2----2--|--2-----2----2----2----0--|--0--0----0----0----0--|
--0--0----0----0----0--|--2-----2----2----2----2--|--2--2----2----2----2--|
-----------------------|--0-----0----0----0----2--|--2--2----2----2----2--|
-----------------------|-----------------------0--|--0--0----0----0----0--|


  G                       D                       Asus2                    
  E  Q    Q    Q    E     E  Q    Q    Q    E     E     Q    Q    Q    E   
--3--3----3----3----3--|--2--2----2----2----2--|--0-----0----0----0----0--|
--0--0----0----0----0--|--3--3----3----3----3--|--0-----0----0----0----0--|
--0--0----0----0----0--|--2--2----2----2----2--|--2-----2----2----2----2--|
--0--0----0----0----0--|--0--0----0----0----0--|--2-----2----2----2----2--|
--2--2----2----2----2--|-----------------------|--0-----0----0----0----0--|
--3--3----3----3----3--|-----------------------|--------------------------|


                    Em    G                       D                     
  E  Q    Q    Q    E     E  Q    Q    Q    E     E  Q    Q    Q    E   
--0--0----0----0----0--|--3--3----3----3----3--|--2--2----2----2----2--|
--0--0----0----0----0--|--0--0----0----0----0--|--3--3----3----3----3--|
--2--2----2----2----0--|--0--0----0----0----0--|--2--2----2----2----2--|
--2--2----2----2----2--|--0--0----0----0----0--|--0--0----0----0----0--|
--0--0----0----0----2--|--2--2----2----2----2--|-----------------------|
--------------------0--|--3--3----3----3----3--|-----------------------|


  Asus2                Em    Em                      G                     
  E     Q    Q    Q    E     E  Q    Q    Q    E     E  Q    Q    Q    E   
--0-----0----0----0----0--|--0--0----0----0----0--|--3--3----3----3----3--|
--0-----0----0----0----0--|--0--0----0----0----0--|--0--0----0----0----0--|
--2-----2----2----2----0--|--0--0----0----0----0--|--0--0----0----0----0--|
--2-----2----2----2----2--|--2--2----2----2----2--|--0--0----0----0----0--|
--0-----0----0----0----2--|--2--2----2----2----2--|--2--2----2----2----2--|
-----------------------0--|--0--0----0----0----0--|--3--3----3----3----3--|


  D                       Asus2                                         
  E  Q    Q    Q    E     E     Q    Q    Q    E     Q    H.            
--2--2----2----2----2--|--0-----0----0----0----0--|--0-----------------|
--3--3----3----3----3--|--0-----0----0----0----0--|--0-----------------|
--2--2----2----2----2--|--2-----2----2----2----2--|--2-----------------|
--0--0----0----0----0--|--2-----2----2----2----2--|--2-----------------|
-----------------------|--0-----0----0----0----0--|--0-----------------|
-----------------------|--------------------------|--------------------|


  Em                      G                       D                     
  E  Q    Q    Q    E     E  Q    Q    Q    E     E  Q    Q    Q    E   
--0--0----0----0----0--|--3--3----3----3----3--|--2--2----2----2----2--|
--0--0----0----0----0--|--0--0----0----0----0--|--3--3----3----3----3--|
--0--0----0----0----0--|--0--0----0----0----0--|--2--2----2----2----2--|
--2--2----2----2----2--|--0--0----0----0----0--|--0--0----0----0----0--|
--2--2----2----2----2--|--2--2----2----2----2--|-----------------------|
--0--0----0----0----0--|--3--3----3----3----3--|-----------------------|


  Asus2                Em    Em                      G                     
  E     Q    Q    Q    E     E  Q    Q    Q    E     E  Q    Q    Q    E   
--0-----0----0----0----0--|--0--0----0----0----0--|--3--3----3----3----3--|
--0-----0----0----0----0--|--0--0----0----0----0--|--0--0----0----0----0--|
--2-----2----2----2----0--|--0--0----0----0----0--|--0--0----0----0----0--|
--2-----2----2----2----2--|--2--2----2----2----2--|--0--0----0----0----0--|
--0-----0----0----0----2--|--2--2----2----2----2--|--2--2----2----2----2--|
-----------------------0--|--0--0----0----0----0--|--3--3----3----3----3--|


  D                       Asus2                Em    Em                    
  E  Q    Q    Q    E     E     Q    Q    Q    E     E  Q    Q    Q    E   
--2--2----2----2----2--|--0-----0----0----0----0--|--0--0----0----0----0--|
--3--3----3----3----3--|--0-----0----0----0----0--|--0--0----0----0----0--|
--2--2----2----2----2--|--2-----2----2----2----0--|--0--0----0----0----0--|
--0--0----0----0----0--|--2-----2----2----2----2--|--2--2----2----2----2--|
-----------------------|--0-----0----0----0----2--|--2--2----2----2----2--|
-----------------------|-----------------------0--|--0--0----0----0----0--|


  G                       D                       Asus2                Em  
  E  Q    Q    Q    E     E  Q    Q    Q    E     E     Q    Q    Q    E   
--3--3----3----3----3--|--2--2----2----2----2--|--0-----0----0----0----0--|
--0--0----0----0----0--|--3--3----3----3----3--|--0-----0----0----0----0--|
--0--0----0----0----0--|--2--2----2----2----2--|--2-----2----2----2----0--|
--0--0----0----0----0--|--0--0----0----0----0--|--2-----2----2----2----2--|
--2--2----2----2----2--|-----------------------|--0-----0----0----0----2--|
--3--3----3----3----3--|-----------------------|-----------------------0--|


  Em                      G                       D                     
  E  Q    Q    Q    E     E  Q    Q    Q    E     E  Q    Q    Q    E   
--0--0----0----0----0--|--3--3----3----3----3--|--2--2----2----2----2--|
--0--0----0----0----0--|--0--0----0----0----0--|--3--3----3----3----3--|
--0--0----0----0----0--|--0--0----0----0----0--|--2--2----2----2----2--|
--2--2----2----2----2--|--0--0----0----0----0--|--0--0----0----0----0--|
--2--2----2----2----2--|--2--2----2----2----2--|-----------------------|
--0--0----0----0----0--|--3--3----3----3----3--|-----------------------|


  Asus2                Em                                                     
  E     Q    Q    Q    E                             E  E  E  E  E  E  E  E   
--0-----0----0----0----0--|-----|-----|-----|-----|--------------------------|
--0-----0----0----0----0--|-----|-----|-----|-----|-----0-----0-----0-----0--|
--2-----2----2----2----0--|-----|-----|-----|-----|-----0-----0-----0-----0--|
--2-----2----2----2----2--|-----|-----|-----|-----|-----2-----2-----2-----2--|
--0-----0----0----0----2--|-----|-----|-----|-----|--------------------------|
-----------------------0--|-----|-----|-----|-----|--------------------------|


  E  E  E  E  E  E  E  E     E  E  E  E  E  E  E  E   
--------------------------|--------------------------|
-----0-----0-----0-----0--|-----3-----3-----3-----3--|
-----0-----0-----0-----0--|-----2-----2-----2-----2--|
-----0-----0-----0-----0--|-----0-----0-----0-----0--|
--------------------------|--------------------------|
--------------------------|--------------------------|


  E  E  E  E  E  E  E  E     E  E  E  E  E  E  E  E   
--------------------------|--------------------------|
-----0-----0-----0-----0--|-----0-----0-----0-----0--|
-----2-----2-----2-----2--|-----0-----0-----0-----0--|
-----2-----2-----2-----2--|-----2-----2-----2-----2--|
--------------------------|--------------------------|
--------------------------|--------------------------|


  E  E  E  E  E  E  E  E     E  E  E  E  E  E  E  E   
--------------------------|--------------------------|
-----0-----0-----0-----0--|-----3-----3-----3-----3--|
-----0-----0-----0-----0--|-----2-----2-----2-----2--|
-----0-----0-----0-----0--|-----0-----0-----0-----0--|
--------------------------|--------------------------|
--------------------------|--------------------------|


  E  E  E  E  E  E  E  E     E  E  E  E  E  E  E  E   
--------------------------|--------------------------|
-----3-----3-----3-----3--|-----3-----3-----3-----3--|
-----2-----2-----2-----2--|-----2-----2-----2-----2--|
-----0-----0-----0-----0--|-----0-----0-----0-----0--|
--------------------------|--------------------------|
--------------------------|--------------------------|


                                                        G                     
  E  E  E  E  E  E  E  E     E  E  E  E  E  E  E  E     E  Q    Q    Q    E   
-----2-----2-----2-----2--|-----2-----2-----2-----2--|--3--3----3----3----3--|
-----3-----3-----3-----3--|-----3-----3-----3-----3--|--0--0----0----0----0--|
-----2-----2-----2-----2--|-----2-----2-----2-----2--|--0--0----0----0----0--|
-----0-----0-----0-----0--|-----0-----0-----0-----0--|--0--0----0----0----0--|
--------------------------|--------------------------|--2--2----2----2----2--|
--------------------------|--------------------------|--3--3----3----3----3--|


  D                       Asus2                Em    Em                    
  E  Q    Q    Q    E     E     Q    Q    Q    E     E  Q    Q    Q    E   
--2--2----2----2----2--|--0-----0----0----0----0--|--0--0----0----0----0--|
--3--3----3----3----3--|--0-----0----0----0----0--|--0--0----0----0----0--|
--2--2----2----2----2--|--2-----2----2----2----0--|--0--0----0----0----0--|
--0--0----0----0----0--|--2-----2----2----2----2--|--2--2----2----2----2--|
-----------------------|--0-----0----0----0----2--|--2--2----2----2----2--|
-----------------------|-----------------------0--|--0--0----0----0----0--|


  G                       D                       Asus2                Asus2  
  E  Q    Q    Q    E     E  Q    Q    Q    E     E     Q    Q    Q    E      
--3--3----3----3----3--|--2--2----2----2----2--|--0-----0----0----0----0-----|
--0--0----0----0----0--|--3--3----3----3----3--|--0-----0----0----0----0-----|
--0--0----0----0----0--|--2--2----2----2----2--|--2-----2----2----2----2-----|
--0--0----0----0----0--|--0--0----0----0----0--|--2-----2----2----2----2-----|
--2--2----2----2----2--|-----------------------|--0-----0----0----0----0-----|
--3--3----3----3----3--|-----------------------|-----------------------------|


  Asus2                Em    G                       D                     
  E     Q    Q    Q    E     E  Q    Q    Q    E     E  Q    Q    Q    E   
--0-----0----0----0----0--|--3--3----3----3----3--|--2--2----2----2----2--|
--0-----0----0----0----0--|--0--0----0----0----0--|--3--3----3----3----3--|
--2-----2----2----2----0--|--0--0----0----0----0--|--2--2----2----2----2--|
--2-----2----2----2----2--|--0--0----0----0----0--|--0--0----0----0----0--|
--0-----0----0----0----2--|--2--2----2----2----2--|-----------------------|
-----------------------0--|--3--3----3----3----3--|-----------------------|


  Asus2                Em    Em                      G                     
  E     Q    Q    Q    E     E  Q    Q    Q    E     E  Q    Q    Q    E   
--0-----0----0----0----0--|--0--0----0----0----0--|--3--3----3----3----3--|
--0-----0----0----0----0--|--0--0----0----0----0--|--0--0----0----0----0--|
--2-----2----2----2----0--|--0--0----0----0----0--|--0--0----0----0----0--|
--2-----2----2----2----2--|--2--2----2----2----2--|--0--0----0----0----0--|
--0-----0----0----0----2--|--2--2----2----2----2--|--2--2----2----2----2--|
-----------------------0--|--0--0----0----0----0--|--3--3----3----3----3--|


  D                       Asus2                Asus2  
  E  Q    Q    Q    E     E     Q    Q    Q    E      
--2--2----2----2----2--|--0-----0----0----0----0-----|
--3--3----3----3----3--|--0-----0----0----0----0-----|
--2--2----2----2----2--|--2-----2----2----2----2-----|
--0--0----0----0----0--|--2-----2----2----2----2-----|
-----------------------|--0-----0----0----0----0-----|
-----------------------|-----------------------------|


  Asus2                Em    G                       D                     
  E     Q    Q    Q    E     E  Q    Q    Q    E     E  Q    Q    Q    E   
--0-----0----0----0----0--|--3--3----3----3----3--|--2--2----2----2----2--|
--0-----0----0----0----0--|--0--0----0----0----0--|--3--3----3----3----3--|
--2-----2----2----2----0--|--0--0----0----0----0--|--2--2----2----2----2--|
--2-----2----2----2----2--|--0--0----0----0----0--|--0--0----0----0----0--|
--0-----0----0----0----2--|--2--2----2----2----2--|-----------------------|
-----------------------0--|--3--3----3----3----3--|-----------------------|


  Asus2                Em    Em                      G                     
  E     Q    Q    Q    E     E  Q    Q    Q    E     E  Q    Q    Q    E   
--0-----0----0----0----0--|--0--0----0----0----0--|--3--3----3----3----3--|
--0-----0----0----0----0--|--0--0----0----0----0--|--0--0----0----0----0--|
--2-----2----2----2----0--|--0--0----0----0----0--|--0--0----0----0----0--|
--2-----2----2----2----2--|--2--2----2----2----2--|--0--0----0----0----0--|
--0-----0----0----0----2--|--2--2----2----2----2--|--2--2----2----2----2--|
-----------------------0--|--0--0----0----0----0--|--3--3----3----3----3--|


  D                       Asus2                Asus2  
  E  Q    Q    Q    E     E     Q    Q    Q    E      
--2--2----2----2----2--|--0-----0----0----0----0-----|
--3--3----3----3----3--|--0-----0----0----0----0-----|
--2--2----2----2----2--|--2-----2----2----2----2-----|
--0--0----0----0----0--|--2-----2----2----2----2-----|
-----------------------|--0-----0----0----0----0-----|
-----------------------|-----------------------------|


  Asus2                Em    G                       D                     
  E     Q    Q    Q    E     E  Q    Q    Q    E     E  Q    Q    Q    E   
--0-----0----0----0----0--|--3--3----3----3----3--|--2--2----2----2----2--|
--0-----0----0----0----0--|--0--0----0----0----0--|--3--3----3----3----3--|
--2-----2----2----2----0--|--0--0----0----0----0--|--2--2----2----2----2--|
--2-----2----2----2----2--|--0--0----0----0----0--|--0--0----0----0----0--|
--0-----0----0----0----2--|--2--2----2----2----2--|-----------------------|
-----------------------0--|--3--3----3----3----3--|-----------------------|


  Asus2                Em    Em                      G                     
  E     Q    Q    Q    E     E  Q    Q    Q    E     E  Q    Q    Q    E   
--0-----0----0----0----0--|--0--0----0----0----0--|--3--3----3----3----3--|
--0-----0----0----0----0--|--0--0----0----0----0--|--0--0----0----0----0--|
--2-----2----2----2----0--|--0--0----0----0----0--|--0--0----0----0----0--|
--2-----2----2----2----2--|--2--2----2----2----2--|--0--0----0----0----0--|
--0-----0----0----0----2--|--2--2----2----2----2--|--2--2----2----2----2--|
-----------------------0--|--0--0----0----0----0--|--3--3----3----3----3--|


  D                       Asus2                Asus2  
  E  Q    Q    Q    E     E     Q    Q    Q    E      
--2--2----2----2----2--|--0-----0----0----0----0-----|
--3--3----3----3----3--|--0-----0----0----0----0-----|
--2--2----2----2----2--|--2-----2----2----2----2-----|
--0--0----0----0----0--|--2-----2----2----2----2-----|
-----------------------|--0-----0----0----0----0-----|
-----------------------|-----------------------------|


  Asus2                Em    Em                  Em                
  E     Q    Q    Q    E     W                   W                 
--0-----0----0----0----0--|--0----------------|--L----------------|
--0-----0----0----0----0--|--0----------------|--L----------------|
--2-----2----2----2----0--|--0----------------|--L----------------|
--2-----2----2----2----2--|--2----------------|--L----------------|
--0-----0----0----0----2--|--2----------------|--L----------------|
-----------------------0--|--0----------------|--L----------------|


-------------------||
-------------------||
-------------------||
-------------------||
-------------------||
-------------------||




Duration Legend
---------------
W - whole
H - half
Q - quarter
E - 8th
S - 16th
T - 32nd
X - 64th
. - note dotted
|-n-|  - n-tuplets


Tablature Legend
----------------
L - tied note
x - dead note
g - grace note
(n) - ghost note
> - accentuded note
NH - natural harmonic
AH - artificial harmonic
TH - tapped harmonic
SH - semi harmonic
PH - pitch harmonic
h - hammer on
p - pull off
b - bend
br - bendRelease
pb - preBend
pbr - preBendRelease
brb - bendReleaseBend
\n/ - tremolo bar dip
\n - tremolo bar dive
-/n - tremolo bar Release up
/n\ - tremolo bar inverted dip
/n - tremolo bar return
-\n - tremolo bar Release down
S - shift slide
s - legato slide
/ -  slide into from below or out of upwards
\ -  slide into from above or out of downwards
~ - vibrato
W - wide vibrato
tr - trill
TP - tremolo picking
T - tapping
S - slap
P - pop
< - fade in
^ - brush up
v - brush down
Tap to rate this tab
 
# A B C D E F G H I J K L M N O P Q R S T U V W X Y Z