Song name
# A B C D E F G H I J K L M N O P Q R S T U V W X Y Z

Vincent Vincent And The Villains - Beast tab

-----------------------------------------------------------------
Beast - Vincent Vincent & the Villains
-----------------------------------------------------------------

Chorus

e|-----------------------|-------------------|---4---------------|--------4------------------|
B|-----------------------|-5-4---5-----7--7--|-7---7-5-7-5-4--4--|------4---7-4-5------------|
G|-------------6-------6-|-----6---4-6---6-6-|---------------5-5-|----5-----------6-6--6-----|
D|-----6-----6-------6---|-------------------|-------------------|--6------------------------|
A|-4-7---4-7-----4-7-----|-------------------|-------------------|-------------------(4)-(4)-|
E|-----------------------|-------------------|-------------------|---------------------------|

e|-----------------------|-------------------|---4---------------|---------------------------|
B|-----------------------|-5-4---5-----7--7--|-7---7-5-7-5-4--4--|------4--------------------|
G|-------------6-------6-|-----6---4-6---6-6-|---------------5-5-|----5----------------------|
D|-----6-----6-------6---|-------------------|-------------------|--6--------4---------------|
A|-4-7---4-7-----4-7-----|-------------------|-------------------|-------------7-6-4---------|
E|-----------------------|-------------------|-------------------|---------------------------| x2

Verse

   C#m                       C#m             F#m
e|--------------------------|------------------------------------|
B|--------------------------|------------------------------------|
G|--------------------------|------------------------------------|
D|-----6-----6-----6-----6 ~|-----6------6---4-----4-------------|
A|-4-7---4-7---4-7---4-7----|-4-7----4-7-------4-----5-----------|
E|--------------------------|--------------------5-----5---------|

  F#m          G#            G#       A      C#m               
e|--------------------------|------------------------------------|
B|--------------------------|------------------------------------|
G|--------------------------|------------------------------------|
D|-4-----4------------------|---------4--------------------------|
A|---4-----4------3-6---3-6-|---3-6-----7-6---4-----4------------|
E|-----5-----5--4-----4-----|-4-----------------4-0---4-0--------|

   C#m                       C#m             F#m
e|--------------------------|------------------------------------|
B|--------------------------|------------------------------------|
G|--------------------------|------------------------------------|
D|-----6-----6-----6-----6 ~|-----6------6---4-6-7-6-4-6---------|
A|-4-7---4-7---4-7---4-7----|-4-7----4-7-------------------------|
E|--------------------------|------------------------------------|

  F#m          G#            G#       A      C#m               
e|--------------------------|------------------------------------|
B|--------------------------|------------------------------------|
G|--------------------------|------------------------------------|
D|---6-6---6-6--4-7-6-4--6--|-7-6-4--7-6-4-6-4-6--6---6----------|
A|--------------------------|------------------------------------|
E|--------------------------|------------------------------------|

Chorus


e|--------------------------|------------------------------------|
B|--------------------------|-----------------------------=------|
G|-------4------------------|---------3--------------------------|
D|-----4----4---------------|------3------3----------------------|
A|---6--------6--7-7-7------|----5----------5--6-6--6------------|
E|-7------------------------|-6----------------------------------|

e|--------------------------|------------------------------------|
B|--------------------------|------------------------------------|
G|-------1------------------|------------------------------------|
D|-----1---1---2--2---2-----|------------------------------------|
A|---2-------2--------------|-6------------13--------------------|
E|-4------------------------|------------------------------------|


"Darling, please forgive me..."

e|-4-4--4--3-3--3--|-4-4--4--4-4--4--|-4-4--4--6-6--6-|-4-4--4-4-|
B|-4-4--4--3-3--3--|-4-4--4--4-4--4--|-5-5--5--8-8--8-|-4-4--4-4-|
G|-4-4--4--4-4--4--|-4-4--4--4-4--4--|-6-6--6--8-8--8-|-4-4--4-4-|
D|-6-6--6--5-5--5--|-6-6--6--6-6--6--|-6-6--6--8-8--8-|-6-6--6-6-|
A|-6-6--6--5-5--5--|-6-6--6--6-6--6--|-4-4--4--6-6--6-|-6-6--6-6-|
E|-4-4--4--3-3--3--|-4-4--4--4-4--4--|-4-4--4--6-6--6-|-4-4--4-4-| x2

e|-7-7--7--7-7--7--|-6-6--6--4-4--4--|-9-9--9--9-9--9-|-6-6--6---|
B|-7-7--7--9-9--9--|-8-8--8--4-4--4--|-9-9--9--9-9--9-|-8-8--8---|
G|-8-8--8--9-9--9--|-8-8--8--4-4--4--|-9-9--9--9-9--9-|-8-8--8---|
D|-9-9--9--9-9--9--|-8-8--8--6-6--6--|-9-9--9--9-9--9-|-8-8--8---|
A|-9-9--9--7-7--7--|-6-6--6--6-6--6--|-7-7--7--7-7--7-|-6-6--6---|
E|-7-7--7--7-7--7--|-6-6--6--4-4--4--|-7-7--7--7-7--7-|-6-6--6---|

e|-4-4--4--3-3--3--|-4-4--4--4-4--4--|-4-4--4--6-6--6-|-4-4--4-4-|
B|-4-4--4--3-3--3--|-4-4--4--4-4--4--|-5-5--5--8-8--8-|-4-4--4-4-|
G|-4-4--4--4-4--4--|-4-4--4--4-4--4--|-6-6--6--8-8--8-|-4-4--4-4-|
D|-6-6--6--5-5--5--|-6-6--6--6-6--6--|-6-6--6--8-8--8-|-6-6--6-6-|
A|-6-6--6--5-5--5--|-6-6--6--6-6--6--|-4-4--4--6-6--6-|-6-6--6-6-|
E|-4-4--4--3-3--3--|-4-4--4--4-4--4--|-4-4--4--6-6--6-|-4-4--4-4-|

(Chorus bit transposed up to Eb)

e|------------------------------|---------------------|
B|------------------------------|-12-11----11-12---14-|
G|----------------13----------13|-------13-------13---|
D|-------13-----13---------13---|---------------------|
A|-11-14---11-14-----11-14------|---------------------|
E|------------------------------|---------------------|

e|----11------------------------|---------------------|
B|-14----14--12-14-12--11-------|-------11------------|
G|------------------------12-12-|----12---------------|
D|------------------------------|-13-------11---------|
A|------------------------------|-------------14-13-11|
E|------------------------------|---------------------|


e|---------------------------------------------------------------|
B|---------------------------------------------------------------|
G|---------------------------------------------------------------|
D|---------------------------------------------------------------|
A|-11-11-11-11-11--13-13-13-13-13--14-14-14-14-14--15-15-15-15-15|
E|---------------------------------------------------------------|

e|-9---|-2--|-4--|---|-4--|-2--|-4--|---|-0--|-0--|-1--|-4-|-2--|--2-|-4--------------------|
B|-9---|-2--|-5--|---|-5--|-2--|-4--|---|-0--|-2--|-0--|-5-|-2--|--2-|-4--------------------|
G|-9---|-2--|-6--|---|-6--|-2--|-5--|---|-1--|-1--|-1--|-6-|-2--|--2-|-5--(bend the chord?)-|
D|-11--|-4--|-6--|---|-6--|-4--|-6--|---|-2--|-2--|-2--|-6-|-4--|--4-|-6--------------------|
A|-11--|-4--|-4--|---|-4--|-4--|-6--|---|-2--|-0--|-2--|-4-|-4--|--4-|-6--------------------|
E|-9---|-2--|-4--|---|-4--|-2--|-4--|---|-0--|-0--|-0--|-4-|-2--|--2-|-4--------------------|

Verse

Chorus

arpeggio bit

Chorus bit transposed up to Eb
Tap to rate this tab
# A B C D E F G H I J K L M N O P Q R S T U V W X Y Z