Song name
# A B C D E F G H I J K L M N O P Q R S T U V W X Y Z

Vincenzo Capirola - Padoana tab

Padoana - Vincenzo Capirola (1474-1548?)

TablEdited by Hamilcar

Tuning - D A D F# B E     Time Signature - 2/4 

 |       |        |       |        |       |        |       |
|----------------|----------------|----------------|----------------|
|----------------|----------------|----------------|----------------|
|--------0---1---|3---------------|3-------1---3---|0---------------|
|----------------|0---------------|0---------------|0---------------|
|----------------|----------------|----------------|----------------|
|----------------|--------0-------|----------------|--------0-------|

 |       |        |       |        |       |        |       |
|----------------|----------------|----------------|----------------|
|----------------|0---------------|----------------|2-------3---0---|
|----0---1---3---|--------3-------|1-------0-------|----------------|
|0---------------|--------0-------|--------0-------|2-----------0---|
|----------------|----------------|----------------|0---------------|
|----------------|0---------------|0---------------|----------------|

 |       |        |       |        |       |        |       |
|----------------|----------------|----------------|----------------|
|2-------3-------|----------------|----------------|----------------|
|------------0-1-|3---------------|3-------1---3---|0-------3-------|
|2---------------|0---------------|0---------------|--------0-------|
|0---------------|----------------|----------------|----------------|
|----------------|--------0-------|----------------|0---------------|

 |       |        |       |        |       |        |       |
|----------------|----------------|----------------|----------------|
|----------------|2-------3---3---|--------3---2---|3---------------|
|----0-----------|------------0---|----------------|3---------------|
|--------2---0---|2-----------0---|2---------------|0---------------|
|----------------|0---------------|0---------------|----------------|
|0---------------|----------------|----------------|--------0-------|

 |       |        |       |        |       |        |       |
|--------2---3---|5---------------|5-------5---3---|2---------------|
|3---------------|----------------|----------------|----------------|
|3---------------|0---------------|0---------------|0---------------|
|0---------------|0---------------|0---------------|0---------------|
|----------------|----------------|----------------|----------------|
|----------------|--------0-------|----------------|--------0-------|

 |       |        |       |        |       |        |       |
|2-------0---2---|3-------0-------|----------------|0---------------|
|----------------|0-------2-------|3---------------|2---------------|
|0---------------|----------------|0-------2-------|3---------------|
|0---------------|2---------------|----------------|--------2-------|
|----------------|--------0-------|2---------------|0---------------|
|----------------|----------------|----------------|----------------|

 |       |        |       |        |       |        |       |
|0-------2---3---|5---------------|5-------5---3---|2-------3---5---|
|2---------------|----------------|----------------|----------------|
|3---------------|0---------------|0---------------|0---------------|
|----------------|0---------------|0---------------|0---------------|
|0---------------|----------------|----------------|----------------|
|----------------|--------0-------|----------------|------------0---|

 |       |        |       |        |       |        |       |
|3---2---0-------|----0-----------|0---------------|----------------|
|------------3---|----2---3---0---|2-------3-------|3---------------|
|----------------|----------------|----------------|3---------------|
|----------------|----------------|----------------|0---------------|
|----------------|0---------------|0---------------|----------------|
|2---------------|----------------|----------------|--------0-------|

 |       |        |       |        |       |        |       |
|----------------|----------------|----------------|----------------|
|3-------0-------|----------------|----------------|----------------|
|3-------1-------|3-------0-------|1-------3-------|0-------0-------|
|0---------------|--------0-------|--------0-------|--------0-------|
|----------------|----------------|----------------|----------------|
|----------------|0---------------|0---------------|0---------------|

 |       |        |       |        |       |        |       |
|----------------|----------------|----------------|----------------|
|--------0-------|----------------|----------------|2-------3---0---|
|--------1-------|3-------1-------|----0-----------|----------------|
|----------------|--------0-------|--------2---0---|2-----------0---|
|----------------|----------------|----------------|0---------------|
|0---------------|0---------------|0---------------|----------------|

 |       |        |       |        |       |        |       |
|----------------|----------------|----------------|----------------|
|2-------3---0---|----------------|----------------|----------------|
|------------1---|3-------0-------|1-------3-------|0-------3-------|
|2---------------|--------0-------|--------0-------|--------0-------|
|0---------------|----------------|----------------|----------------|
|----------------|0---------------|0---------------|0---------------|

 |       |        |       |        |       |        |       |
|----------------|----------------|----------------|----------------|
|----------------|2-------3---3---|--------3---2---|3---------------|
|----0-----------|------------0---|----------------|3---------------|
|--------2---0---|2-----------0---|2---------------|0---------------|
|----------------|0---------------|0---------------|----------------|
|0---------------|----------------|----------------|--------0-------|

 |       |        |       |        |       |        |       |
|--------7-------|5-------2-------|3---------------|2---------------|
|--------3-------|3-------3-------|0-------2-------|3---------------|
|----------------|----------------|----------------|----------------|
|0-------5-------|4-------0-------|2---------------|0---------------|
|----------------|----------------|----------------|----------------|
|----------------|----------------|----------------|--------0-------|

 |       |        |       |        |       |        |       |
|2-------5-------|3-------2-------|0---------------|0---------------|
|3---------------|0---------------|2-------3-------|2---------------|
|--------3-------|----------------|--------0---2---|3---------------|
|0-------4-------|2-------0-------|----------------|--------2-------|
|----------------|----------------|0-------2-------|0---------------|
|----------------|----------------|----------------|----------------|

 |       |        |       |        |       |        |       |
|0-------7-------|5-------2-------|3---------------|2-------3---2---|
|2-------3-------|3-------3-------|0-------2-------|3---------------|
|3---------------|----------------|----------------|----------------|
|--------5-------|4-------0-------|2---------------|0---------------|
|0---------------|----------------|----------------|----------------|
|----------------|----------------|----------------|----------------|

 |       |        |       |        |       |        |       |
|0---------------|----------------|----------------|----------------|
|----3---2---0---|--------0-------|2-------3-------|3---------------|
|----------------|3---------------|----------------|3---------------|
|----------------|4-------5-------|2---------------|0---------------|
|----------------|5---------------|0---------------|----------------|
|----------------|--------5-------|----------------|--------0-------|

 |       |        |       |        |       |        |       |
|----------------|----------------|----------------|----------------|
|3---------------|----------------|0-------0-------|----------------|
|3-------3-------|3-------3-------|----------------|3---------------|
|0-------4-------|4-------4-------|5-------5-------|4---------------|
|--------5-------|--------5-------|----------------|5---------------|
|----------------|0---------------|5-------5-------|--------0-------|

 |       |        |       |        |       |        |       |
|----------------|----------------|----------------|0---------------|
|--------0-------|----------------|----------------|2---------------|
|3---------------|3---------------|1-------0-------|3---------------|
|4-------5-------|4---------------|2-------0-------|--------2-------|
|5---------------|5---------------|3---------------|0---------------|
|--------5-------|--------0-------|----------------|----------------|

 |       |        |       |        |       |        |       |
|0---------------|----------------|----------------|----------------|
|2---------------|----------------|0-------0-------|----------------|
|3-------3-------|3-------3-------|----------------|3-------0---1---|
|--------4-------|4-------4-------|5-------5-------|4---------------|
|0-------5-------|--------5-------|----------------|5---------------|
|----------------|0---------------|5-------5-------|----------------|

 |       |        |       |        |       |        |       |
|----------------|----------------|----------------|----------------|
|----0---2---3---|2-------3-------|--------3---2---|3---------------|
|3---------------|--------0-------|----------------|3---------------|
|----------------|2-------0-------|2---------------|0---------------|
|----------------|0---------------|0---------------|----------------|
|----------------|----------------|----------------|--------0-------|

 |       |        |       |        |       |        |       |
|----------------|----------------|----------------|----------------|
|3-------0---2---|3-------2---0---|----------------|----------------|
|3---------------|3---------------|3---1---0-------|0---------------|
|0---------------|----------------|------------2---|0-----------2---|
|----------------|----------------|----------------|----------------|
|----------------|0---------------|----------------|--------0-------|

 |       |        |       |        |       |        |       |
|----------------|----------------|----------------|0---------------|
|------------0---|2---------------|3---------------|2---------------|
|0---1---3-------|--------3-------|0-------2-------|3---------------|
|----------------|2---------------|----------------|--------2-------|
|----------------|0---------------|2---------------|0---------------|
|----------------|----------------|----------------|----------------|

 |       |        |       |        |       |        |       |
|0---------------|----------------|----------------|----------------|
|2-------0---2---|3-------2---0---|----------------|----------------|
|3---------------|3---------------|3---1---0-------|--------0---1---|
|----------------|----------------|------------2---|0---2-----------|
|0---------------|----------------|----------------|----------------|
|----------------|0---------------|----------------|----------------|

 |       |        |       |        |       |        |       |
|----------------|----------------|----------------|----------------|
|----0---2---3---|2---------------|2-------3-------|3---------------|
|3---------------|----------------|----------------|3---------------|
|----------------|2-------4---0---|2---------------|0---------------|
|----------------|0---------------|0---------------|----------------|
|----------------|----------------|----------------|--------0-------|

 |       |        |       |        |       |        |       |
|--------5---3---|2-------3-------|0---2---3---0---|2---------------|
|3---------------|------------3---|----------------|3---------------|
|3---------------|----------------|----------------|----------------|
|0---------------|0---------------|----------------|0---------------|
|----------------|----------------|0---------------|----------------|
|----------------|----------------|----------------|--------0-------|

 |       |        |       |        |       |        |       |
|2-------0-------|2-------0-------|2---------------|0---------------|
|3-------2-------|3-------2-------|3-------2---0---|2---------------|
|----------------|----------------|----------------|--------3-------|
|0---------------|0---------------|0---------------|----------------|
|--------0-------|--------0-------|----------------|0---------------|
|----------------|----------------|----------------|----------------|

 |       |        |       |        |       |        |       |
|0-------5---3---|2-------3-------|0---2---3---0---|2-------3-------|
|2---------------|------------3---|----------------|3-------0-------|
|----------------|----------------|----------------|----------------|
|----------------|0---------------|----------------|0---------------|
|0---------------|----------------|0---------------|----------------|
|----------------|----------------|----------------|----------------|

 |       |        |       |        |       |        |       |
|----2---0-------|----0-----------|0---------------|----------------|
|------------3---|----2---3---0---|2-------3-------|3---------------|
|----------------|----------------|----------------|3---------------|
|----------------|----------------|----------------|0---------------|
|----------------|0---------------|0---------------|----------------|
|5---------------|----------------|----------------|--------0-------|

 |       |        |       |        |       |        |       |
|----------------|----------------|----------------|----------------|
|3-------3-------|3-------3-------|3-------3-------|3-------3-------|
|3-------0-------|0-------0-------|1-------1-------|0-------0-------|
|0---------------|----------------|----------------|----------------|
|--------0-------|--------0-------|--------0-------|--------0-------|
|----------------|0---------------|0---------------|0---------------|

 |       |        |       |        |       |        |       |
|----------------|----------------|----------------|0---------------|
|--------3-------|3-------3---3---|3---3-----------|2---------------|
|--------1-------|0-------1---0---|1---0-----------|3---------------|
|----------------|----------------|--------2---0---|--------2-------|
|--------0-------|----------------|----------------|0---------------|
|0---------------|0---------------|----------------|----------------|

 |       |        |       |        |       |        |       |
|0---------------|----------------|----------------|----------------|
|2-------3-------|3-------3-------|3-------3-------|3-------3---3---|
|3-------0-------|0-------0-------|1-------1-------|0-------1---0---|
|----------------|----------------|----------------|----------------|
|0-------0-------|--------0-------|--------0-------|----------------|
|----------------|0---------------|0---------------|0---------------|

 |       |        |       |        |       |        |       |
|----------------|----------------|----------------|----------------|
|3---3-----------|2-------3-------|--------3---2---|3---------------|
|1---0-----------|--------0-------|----------------|3---------------|
|--------2---0---|2-------0-------|2---------------|0---------------|
|----------------|0---------------|0---------------|----------------|
|----------------|----------------|----------------|--------0-------|

 |       |        |       |        |       |        |       |
|--------5-------|5-------7---5---|7---5---7---9---|10--------------|
|3---------------|----------------|----------------|----------------|
|3-------0-------|0---------------|----------------|----------------|
|0---------------|----------------|----------------|0---------------|
|----------------|----------------|----------------|----------------|
|--------0-------|0---------------|----------------|--------0-------|

 |       |        |       |        |       |        |       |
|10------8---7---|5---7---8---7---|5---------------|5---------------|
|----------------|----------------|----8---7---5---|7---------------|
|----------------|----------------|----------------|----------------|
|0---------------|0---------------|----------------|0---------------|
|----------------|----------------|----------------|----------------|
|----------------|----------------|----------------|--------0-------|

 |       |        |       |        |       |        |       |
|5---------------|3-------7---5---|5---3---2---0---|2-------3---2---|
|7---------------|5---------------|----------------|3---------------|
|----------------|----------------|----------------|----------------|
|0---------------|----------------|----------------|0---------------|
|----------------|3---------------|----------------|----------------|
|----------------|----------------|----------------|----------------|

 |       |        |       |        |       |        |       |
|0---------------|----------------|----------------|----------------|
|----3---2---0---|--------0-------|2-------3-------|3---------------|
|----------------|3---------------|----------------|3---------------|
|----------------|4-------5-------|2---------------|0---------------|
|----------------|5---------------|0---------------|----------------|
|----------------|--------5-------|----------------|--------0-------|

 |       |        |       |        |       |        |       |
|--------5-------|5-------5-------|7-------7-------|5---------------|
|3-------7-------|7-------7-------|8-------8-------|7---------------|
|3---------------|----------------|----------------|--------8-------|
|0---------------|----------------|5-------5-------|----------------|
|--------5-------|5-------5-------|----------------|5---------------|
|----------------|----------------|----------------|----------------|

 |       |        |       |        |       |        |       |
|5-----------5---|7-------5-------|----------------|5---------------|
|7-------8-------|8-------7-------|8-------7-------|5---------------|
|----------------|----------------|5-------8-------|7---------------|
|----------------|5---------------|----------------|--------7-------|
|5---------------|--------5-------|7-------5-------|0---------------|
|----------------|----------------|----------------|----------------|

 |       |        |       |        |       |        |       |
|5---------------|----------------|----------------|----------------|
|5---------------|0-------0-------|----------------|----0---2---3---|
|7-------3-------|----------------|3-------0---1---|3---------------|
|--------4-------|5-------5-------|4---------------|----------------|
|0-------5-------|----------------|5---------------|----------------|
|----------------|5-------5-------|----------------|----------------|

 |       |        |       |        |       |        |       |
|----------------|----------------|----------------|---------------||
|2-------3-------|--------3---2---|3---------------|3--------------||
|--------0-------|----------------|3---------------|3--------------||
|2-------0-------|2---------------|0---------------|0--------------||
|0---------------|0---------------|----------------|---------------||
|----------------|----------------|--------0-------|---------------||

Tap to rate this tab
 
# A B C D E F G H I J K L M N O P Q R S T U V W X Y Z